IndyTab Logo

BETA VERSION - 321 TABS DISPONIBILI

Cerca una tablatura nel nostro archivio:

Gruppo Canzone


Elenco dei gruppi presenti su IndyTab
Lista di tutte le tablature di IndyTab
DISCLAIMER
Questa tablatura rappresenta l'interpretazione della canzone da parte dell'autore. Può essere usata per scopi di studio, insegnamento e ricerca.

La tab è liberamente riproducibile in forum, blog, siti web (ad eccezione degli archivi di tablature online) e stampabile. Non è obbligatorio ma molto gradito citare la fonte (cioè IndyTab), meglio con un link di rimando al nostro sito.
ACCORDATORE
Per accordare la tua chitarra puoi usare il nostro accordatore online
TAB REQUEST
Stai cercando una tablatura? Suggeriscila compilando il modulo sottostante!

Gruppo
Titolo
Tua Mail

(la tua mail verrà usata per ricontattarti quando la tablatura sarà online)
DELLO STESSO GRUPPO

Derozer // Canzone Ska

Tablatura tratta dall'album: Mondo Perfetto

(clicca qui per la legenda)

(clicca qui per il video)

     A   B   F#  D   E   G#  D#  C# E(0)
e|--------------------------------------|
B|--------------------------------------|
G|---------------7---9-------8---6------|
D|---7---9---4---7---9---6---8---6---2--|
A|---7---9---4---5---7---6---6---4---2--|
E|---5---7---2-----------4-----------0--|


--------------------------------------------------------------------------


INTRO(x2):
A D D#/E D#/E D#/E D#/E



STROFA:

A        D               E
Me lo ha detto anche Ruggero

A       D          B    (C#) (D)
gestore del Sartea bar

A       D           E 
Seby se vuoi fare dinero
 
     A        E       A   [A]  (A) (G#)
devi fare una canzone ska



RITORNELLO:

F#           D          E 
giuro che ci ho provato giuro

F#           D          E 
giuro che ci ho tentato giuro

A                       
me il meglio che ho ottenuto

D 
è questo pezzo qua

    E(0)              A   [A]
che non è una canzone ska



SOLO:
e|-----------------------------------------------------------|
B|-----------------------------------------------------------|
G|--7-7-6---------7-7-6---------7-7-6-9-999-9-7-7-6-9-999-9--|
D|--------7-777-7-------7-777-7------------------------------|x2
A|-----------------------------------------------------------|
E|-----------------------------------------------------------|
          A             A             D             E 

e|------------------------------------------------------|
B|------------------------------------------------------|
G|--6-7-6-7-777--6-7-6-9-999--6-7-6--------6-7-6--------|
D|----------------------------------7-777--------7-777--|
A|------------------------------------------------------|
E|------------------------------------------------------|
          D            E            A            A   [A] 

STROFA:

F#       D             E              
facciamo quello che ci viene dal cuore

F#        D             E
e il risultato è questo qua

F#               D
sarà banale ma però devi accettare

        E(0)              A [A] (A) (G#)
che questa è tutta sincerità



RITORNELLO:

F#           D          E  
giuro che ci ho provato giuro (lo giuro)

F#           D          E  
giuro che ci ho tentato giuro (lo giuro)

A                              D
ma il meglio che ho ottenuto è questo pezzo qua

    E(0)..
che non è una canzone

E(0)..
non è una canzone

E(0)..            A..
non è una canzone ska
VIDEO

Se il video non dovesse essere più disponibile scrivi a indytab@googlemail.com. Grazie!
COMMENTA QUESTA TABLATURA
Devi avere JavaScript attivato per poter commentare! (misura antispam)