IndyTab Logo

BETA VERSION - 321 TABS DISPONIBILI

Cerca una tablatura nel nostro archivio:

Gruppo Canzone


Elenco dei gruppi presenti su IndyTab
Lista di tutte le tablature di IndyTab
DISCLAIMER
Questa tablatura rappresenta l'interpretazione della canzone da parte dell'autore. Può essere usata per scopi di studio, insegnamento e ricerca.

La tab è liberamente riproducibile in forum, blog, siti web (ad eccezione degli archivi di tablature online) e stampabile. Non è obbligatorio ma molto gradito citare la fonte (cioè IndyTab), meglio con un link di rimando al nostro sito.
ACCORDATORE
Per accordare la tua chitarra puoi usare il nostro accordatore online
TAB REQUEST
Stai cercando una tablatura? Suggeriscila compilando il modulo sottostante!

Gruppo
Titolo
Tua Mail

(la tua mail verrà usata per ricontattarti quando la tablatura sarà online)
DELLO STESSO GRUPPO

Los Fastidios // Contiamo Su Di Voi

Tablatura tratta dall'album: Contiamo Su Di Voi!

(clicca qui per la legenda)

     A    C    G     D    F    G#  
e|---------------------------------|
B|---------------------------------|
G|--------5----------7-------------|
D|---7----5----5-----7----3----6---|
A|---7----3----5-----5----3----6---|
E|---5---------3----------1----4---|


--------------------------------------------------------------------------


C..          D..
Noi contiamo su di voi

F..          G..
nuove generazioni di ribelli

C..          D..
Noi contiamo su di voi

F..                G..
per portare avanti la rivolta. Oi!


RIFF:
e|---------------------------------------------------------|
B|---------------------------------------------------------|
G|--5-5-5-5-4-5--7-7-7-7-5-7--9-7-5--9-7-5--10-9-7--5-7-5--|
D|---------------------------------------------------------|
A|---------------------------------------------------------|
E|---------------------------------------------------------|

e|------------------------------------------------------------|
B|------------------------------------------------------------|
G|--5-5-5-5-4-5--7-7-7-7-5-7--9-7-5--9-7-5--10-9-7--5-7-5--5--|
D|------------------------------------------------------------|
A|------------------------------------------------------------|
E|------------------------------------------------------------|
(alcune note vengono ripetute più volte)

SOTTO IL RIFF: 
C  G  A  F 
C  G  (G#) A  F 



STROFA:

C  
Quanti ragazzi in questi anni

G  
si sono gettati via

A 
rovinati da falsi interessi

F 
e assurda utopia

C 
Oggi invece una moltitudine

G                    (G#)
cresce attorno a noi

A 
sono i giovani ribelli

F              G  
che gridano la loro rabbia


RITORNELLO:

C            D 
Noi contiamo su di voi

F           G  
nuove generazioni di ribelli

C            D 
Noi contiamo su di voi

F                  G  
per portare avanti la rivolta

C            D 
Noi contiamo su di voi

F           G  
nuove generazioni di ribelli

C            D 
Noi contiamo su di voi

F                  G  
per portare avanti la rivolta


STROFA VUOTA (con coro):
C  G  A  F  x2


STROFA:

C 
Di loro fatto e detto

G                  
ciò che hanno voluto

A 
per anni manovrati

F 
e strumentalizzati

C 
oggi invece la loro rabbia

G                     (G#)
riuscirà a distruggere

A 
ciò che i vivi han costruito

F                      G  
su quel che mai gli è appartenuto


RITORNELLO:

C            D 
Noi contiamo su di voi

F           G  
nuove generazioni di ribelli

C            D 
Noi contiamo su di voi

F                  G  
per portare avanti la rivolta

C            D 
Noi contiamo su di voi

F           G  
nuove generazioni di ribelli

C            D 
Noi contiamo su di voi

F                  G  
per portare avanti la rivolta


RIFF:
e|---------------------------------------------------------|
B|---------------------------------------------------------|
G|--5-5-5-5-4-5--7-7-7-7-5-7--9-7-5--9-7-5--10-9-7--5-7-5--|
D|---------------------------------------------------------|
A|---------------------------------------------------------|
E|---------------------------------------------------------|

e|------------------------------------------------------------|
B|------------------------------------------------------------|
G|--5-5-5-5-4-5--7-7-7-7-5-7--9-7-5--9-7-5--10-9-7--5-7-9--5--|
D|------------------------------------------------------------|
A|------------------------------------------------------------|
E|------------------------------------------------------------|
(alcune note vengono ripetute più volte)

SOTTO IL RIFF: 
C  G  A  F 
C  G  (G#) A  F 

STROFA:

C 
Quanti ragazzi in questi anni

G                  
si sono gettati via

A 
rovinati da falsi interessi

F 
e assurda utopia

C 
Oggi invece una moltitudine

G                  (G#)
cresce attorno a noi

A 
sono i giovani ribelli

F              G  
che gridano la loro rabbia


RITORNELLO:

C            D 
Noi contiamo su di voi

F           G  
nuove generazioni di ribelli

C            D 
Noi contiamo su di voi

F                  G  
per portare avanti la rivolta

C            D 
Noi contiamo su di voi

F           G  
nuove generazioni di ribelli

C            D 
Noi contiamo su di voi

F                  G  
per portare avanti la rivolta

C  D  F  G  
         La rivolta!

C  D  F  G  
         La rivolta!

C            D 
Noi contiamo su di voi

F           G  
nuove generazioni di ribelli

C            D 
Noi contiamo su di voi

F                  G  
per portare avanti la rivolta

C    D    F        G  
Oi!Oi!Oi!Oi!Oi!... La rivolta!

C    D    F         G  
Oi!Oi!Oi!Oi!Oi!... La rivolta!

OUTRO:
C..
COMMENTA QUESTA TABLATURA
Devi avere JavaScript attivato per poter commentare! (misura antispam)