IndyTab Logo

BETA VERSION - 321 TABS DISPONIBILI

Cerca una tablatura nel nostro archivio:

Gruppo Canzone


Elenco dei gruppi presenti su IndyTab
Lista di tutte le tablature di IndyTab
DISCLAIMER
Questa tablatura rappresenta l'interpretazione della canzone da parte dell'autore. Può essere usata per scopi di studio, insegnamento e ricerca.

La tab è liberamente riproducibile in forum, blog, siti web (ad eccezione degli archivi di tablature online) e stampabile. Non è obbligatorio ma molto gradito citare la fonte (cioè IndyTab), meglio con un link di rimando al nostro sito.
ACCORDATORE
Per accordare la tua chitarra puoi usare il nostro accordatore online
TAB REQUEST
Stai cercando una tablatura? Suggeriscila compilando il modulo sottostante!

Gruppo
Titolo
Tua Mail

(la tua mail verrà usata per ricontattarti quando la tablatura sarà online)
DELLO STESSO GRUPPO

Punkreas // Falsi Preoccupati

Tablatura tratta dall'album: Paranoia E Potere

(clicca qui per la legenda)

(clicca qui per il video)

    B   C   D   E 
e|-----------------|
B|-----------------|
G|--4---5---7---9--|
D|--4---5---7---9--|
A|--2---3---5---7--|
E|-----------------|
  
--------------------------------------------------------------------------


RIFF1:
e|----------------------------------------|
B|---7h8--7-----7-8----7h8--7-----7-8-----|
G|-----------9-----------------9----------|
D|----------------------------------------|
A|----------------------------------------|
E|----------------------------------------|
  E                 D  
e|----------------------------------------|
B|---7h8--7-----7-8-7----/12--10--8---7-8-|
G|-----------9----------------------------|
D|----------------------------------------|
A|----------------------------------------|
E|----------------------------------------|
  C                 B             D 


INTRO:
suonare il RIFF1 due volte


STROFA:

E                  D 
Una situazione demografica

                C 
alquanto preoccupante

                   B          D          E  
che spinge il governante a pescare dal cilindro

                  D 
ed ecco spuntar fuori

                   C 
il ministro alla famiglia

             B              D              E              
distribuisce premi per chi sforna un'altra figlia


RIFF:
Suonare il RIFF1 una volta


STROFA:

E                           D 
Anche il cane bianco che continua

                   C 
a sbraitare dal balcone

                 B           D           E 
il suo solito sermone contro la contraccezione

                    D 
L'aborto è da assassini

                  C 
e la Chiesa vuole gente

                    B            D 
purchè di ciò che è stato non ne salti fuori


RITORNELLO:

C                          D 
niente sulle guerre già passate,

                    B          
i massacri e le crociate le indulgenze

       E                 (D)
che da sempre son pagate

C                      D 
sono tutti attori preparati

                 E 
dei falsi preoccupati


RIFF:
Suonare il RIFF1 due volte


STROFA:

E                        D 
Chi sogna un esercito privato

                        C 
pronto a uccider per lo stato

               B         D              E 
o una raccolta fondi da svolger sul sagrato

              D 
e grondano le lacrime

              C 
di falsa commozione

                   B         D 
un grosso fiume in piena che rincorre


RITORNELLO:

     C                         D 
la nazione ormai famosa per il pane

                B 
e le fette di salame

                  E                     (D)
che da tempo sono poste sopra gli occhi

C                     D 
Popolo di grandi sognatori


PONTE:

E(p.m.)
Tutto è bene

C               D 
finchè si dorme senza pene

E(p.m.)
ma il risveglio

C           D 
non sarà di certo meglio

E(p.m.)
chi ti disse

C               D 
"bevi l'acqua alla mia fonte"

E(p.m.)
ora è li con te

C            D 
sul vascello di Caronte


RITORNELLO:

C                         D 
paese ormai famoso per il pane

                B 
e le fette di salame

                  E                     (D)
che da tempo sono poste sopra gli occhi

C                      D 
da attori molto seri e preparati

                 E 
dei falsi preoccupati


SOLO:
e|-------10-------10-------10-8-7---------|
B|--7-8------7-8------7-8-----------------|
G|----------------------------------------|
D|----------------------------------------|
A|----------------------------------------|
E|----------------------------------------|

e|-------10-------------------------------|
B|--7-8------7-8-7---7-7-10-8-7-----------|
G|----------------------------------------|
D|----------------------------------------|
A|----------------------------------------|
E|----------------------------------------|

e|----------------------------------------|
B|----------------------------------------|
G|---5-5-5-4-2-0-----5-5-5-4-2-0----------|
D|----------------------------------------|
A|----------------------------------------|
E|----------------------------------------|

e|----------------------------------------|
B|----------------------------------------|
G|---5-5-5-4-2-4~----7~-------------------|
D|----------------------------------------|
A|----------------------------------------|
E|----------------------------------------|

e|--7-----7-----7-----7--------10----10----10----10-------|
B|--10b12-10b12-10b12-10b12----13b15-13b15-13b15-13b15----|
G|--------------------------------------------------------|
D|--------------------------------------------------------|
A|--------------------------------------------------------|
E|--------------------------------------------------------|

e|--12----12----12----12-------15----15----14-15-14-------|
B|--15b17-15b17-15b17-15b17----18b20-18b20----------------|
G|--------------------------------------------------------|
D|--------------------------------------------------------|
A|--------------------------------------------------------|
E|--------------------------------------------------------|

e|--7-----7-----7-----7--------12----12----12----12-------|
B|--10b12-10b12-10b12-10b12----15b17-15b17-15b17-15b17----|
G|--------------------------------------------------------|
D|--------------------------------------------------------|
A|--------------------------------------------------------|
E|--------------------------------------------------------|

e|--10----10----10----10-------7-----7-----7--------------|
B|--13b15-13b15-13b15-13b15----10b12-10b12-10b12b10-8-----|
G|----------------------------------------------------9~--|
D|--------------------------------------------------------|
A|--------------------------------------------------------|
E|--------------------------------------------------------|

Sotto al solo la chitarra ritmica suona:
E  D  C  B  D 


OUTRO:
E..
VIDEO

Se il video non dovesse essere più disponibile scrivi a indytab@googlemail.com. Grazie!
COMMENTA QUESTA TABLATURA
Devi avere JavaScript attivato per poter commentare! (misura antispam)