IndyTab Logo

BETA VERSION - 321 TABS DISPONIBILI

Cerca una tablatura nel nostro archivio:

Gruppo Canzone


Elenco dei gruppi presenti su IndyTab
Lista di tutte le tablature di IndyTab
DISCLAIMER
Questa tablatura rappresenta l'interpretazione della canzone da parte dell'autore. Può essere usata per scopi di studio, insegnamento e ricerca.

La tab è liberamente riproducibile in forum, blog, siti web (ad eccezione degli archivi di tablature online) e stampabile. Non è obbligatorio ma molto gradito citare la fonte (cioè IndyTab), meglio con un link di rimando al nostro sito.
ACCORDATORE
Per accordare la tua chitarra puoi usare il nostro accordatore online
TAB REQUEST
Stai cercando una tablatura? Suggeriscila compilando il modulo sottostante!

Gruppo
Titolo
Tua Mail

(la tua mail verrà usata per ricontattarti quando la tablatura sarà online)
DELLO STESSO GRUPPO

Shandon // Bad Smell

Tablatura tratta dall'album: Not So Happy To Be Sad

(clicca qui per la legenda)

     F#m     E    A    C#m   D        F#  C#  D    G#  A   B   E   E(0) 
e|----2------0----5-----4----5----|--------------------------------------|
B|----2------0----5-----5----7----|--------------------------------------|
G|----2------1----6-----6----7----|-------6---7------------4---9---------|
D|---(4)----(2)--(7)---(6)--(7)---|---4---6---7----6---7---4---9----2----|
A|---(4)----(2)--(7)---(4)--(5)---|---4---4---5----6---7---2---7----2----|
E|---(2)----(0)--(5)-- (4)--(5)---|---2------------4---5------------0----|

     Scordi parte ska                 Accordi distorti

--------------------------------------------------------------------------

INTRO:
(Accordi distorti)

F# C#/D 
F# G#/A 
F# C#/D 
F# [E][E][E]

F# C#/D 
F# G#/A 
F# C#/D  E.. B..


(Ritmo ska)

F#m A C#m  (x2)


STROFA 1:
(Ritmo ska)

F#m  D       F#m  E 
My   love is strong 

F#m  D       A    C#m 
I    want to be a woman

F#m  D        F#m  E 
For  you it's wrong

F#m  D     F#m    E 
Oh   I can live without you


PRERITORNELLO:
(Accordi distorti)

B(p.m.)
All the people look

e|------------------------------------------------------|
B|------------------------------------------------------|
G|----------------------------2--4--4b5--4--2-----------|
D|---4-4--2-2-------2-2--4-4-------------------4--------|
A|-------------4-4--------------------------------------|
E|------------------------------------------------------|
     F#m  (con ritmo ska)


B(p.m.)            C#(p.m.)  C# 
What the fuck I've done


RITORNELLO:
(accordi distorti)

F#  C#/D   F#  G#/A   F#  C#/D   F#   [E][E][E]
Bad        smell      bad        I've got no chance


F#  C#/D   F#  G#/A   F#  C#/D   E..        B..
Bad        smell      bad        and you pretend to understand


STACCO:
(Ritmo ska)

F#m A  C#m  (x2)


STROFA 2:
(Ritmo ska)

F#m  D       F#m  E 
My   love is strong

F#m   D       A       C#m 
It's  right I feel so active

F#m  D       F#m  E 
He's full of fun

F#m   D      A       C#m 
Its   good I feel so sexy


PRERITORNELLO: come sopra


RITORNELLO: 
(accordi distorti)

F#  C#/D   F#  G#/A   F#  C#/D   F#   [E][E][E]
Bad        smell      bad        I've got no chance

F#  C#/D   F#  G#/A   F#  C#/D   F#  G#/A  [A]
Bad        smell      bad         


PONTE:
(accordi distorti)

E            B  
you can understand

E            B  
you can understand

E            C#    E(0).. 
you can understand


La chitarra solista fa questo riff in sottofondo:

   (ottave ed accordo suonati più volte)
e|---------------------------------------------------------|
B|---------------------------------------------------------|
G|---9----8----6----4----4---------------------------------|
D|-----------------------4---------------------------------|
A|---7----6----4----2----2---------------------------------|
E|----------------------------4-4--7-----4-4--7---4-7-4----|

e|---------------------------------------------------------|
B|---------------------------------------------------------|
G|---9----8----6----4----4---------------------------------|
D|-----------------------4---------------------------------|
A|---7----6----4----2----2---------------------------------|
E|----------------------------4-4--7-----4-4--7---4-7-4----|

e|---------------------------------------------------------|
B|---------------------------------------------------------|
G|---9----8----6----4----10--------9-----------------------|
D|---------------------------------------------------------|
A|---7----6----4----2----8---------7-----------------------|
E|---------------------------------------------------------|


RITORNELLO:
(accordi distorti)

F#  C#/D   F#  G#/A   F#  C#/D   F#   [E][E][E]
Bad        smell      bad        I've got no chance


F#  C#/D   F#  G#/A   F#  C#/D   E..        B..          F# .. 
Bad        smell      bad        and you pretend to understand
COMMENTA QUESTA TABLATURA
Devi avere JavaScript attivato per poter commentare! (misura antispam)