IndyTab Logo

BETA VERSION - 321 TABS DISPONIBILI

Cerca una tablatura nel nostro archivio:

Gruppo Canzone


Elenco dei gruppi presenti su IndyTab
Lista di tutte le tablature di IndyTab
DISCLAIMER
Questa tablatura rappresenta l'interpretazione della canzone da parte dell'autore. Pu˛ essere usata per scopi di studio, insegnamento e ricerca.

La tab Ŕ liberamente riproducibile in forum, blog, siti web (ad eccezione degli archivi di tablature online) e stampabile. Non Ŕ obbligatorio ma molto gradito citare la fonte (cioŔ IndyTab), meglio con un link di rimando al nostro sito.
ACCORDATORE
Per accordare la tua chitarra puoi usare il nostro accordatore online
TAB REQUEST
Stai cercando una tablatura? Suggeriscila compilando il modulo sottostante!

Gruppo
Titolo
Tua Mail

(la tua mail verrÓ usata per ricontattarti quando la tablatura sarÓ online)
DELLO STESSO GRUPPO

Porno Riviste // Stanze Vuote

Tablatura tratta dall'album: La Seconda PossibilitÓ

(clicca qui per la legenda)

(clicca qui per il video)

   E  G#  F#  E(VII) D#  B  C#
e|----------------------------------|
B|----------------------------------|
G|------------9------8---4--6-------|
D|-2--6---4---9------8---4--6-------|
A|-2--6---4---7------6---2--4-------|
E|-0--4---2-------------------------|


--------------------------------------------------------------------------


INTRO:
Ripetere queste due note - a volte raddoppiandole
Il quarto giro solo con chitarra solista senza ritmica
e|-----------------------------------------|
B|--16-----16------16------16--------------|
G|-----16------16-----16------16-----------|
D|-----------------------------------------|x4
A|-----------------------------------------|
E|-----------------------------------------|
    E      G#     F#



STROFA:

E      G#         F#
C'Ŕ un oggetto gigante

E          G#     F#
Toglie la luce da me

E       G#         F#
Non mi lascia lo spazio

     E      G#       F#
╚ immobile davanti a me

          E        G#       F#
Ti hanno messo in bocca giudizi

E       G#    F#
Che non sono tuoi

  E         G#     F#
Adesso lasciatemi solo

 E       G#      F#
Solo nelle mie stanze vuote



PONTE:
(palm muted)

G#                  F#
La gente cauta nell'eliminazione

E(VII)           D#
Spesso coincide con la sostituzione

G#
Io non ne ho bisogno affatto

F#
Di oggettistica e di stato

E(VII)
Sexy shop pi¨ video tele

D#
Di pigiami da malato



RITORNELLO:

G#
La stanza della bontÓ

B
La stanza dell'umiltÓ

C#
Ma adesso lasciatemi solo

D#
Solo nelle mie stanze vuote

G#
La stanza della bontÓ

B
La stanza dell'umiltÓ

C#
Coglioni lasciatemi nudo

D#
Nudo nelle mie stanze vuote

(RIFF sotto al ritornello)
e|--------------------------------------------------|
B|-8-8-6-4----9-9-9-8-4----8-8-6-4-6----3-3-3-3-3---|
G|--------------------------------------------------|
D|--------------------------------------------------|
A|--------------------------------------------------|
E|--------------------------------------------------|
   G#         B            C#           D#



RIPETERE L'INTRO



STROFA:
(palm muted)

E         G#      F#
C'Ŕ un oggetto pesante

           E          G#        F#
Fatto in plastica acciaio e diamante

     E        G#           F#
╚ immobile in mezzo alla stanza

           E          G#    F#
Lui che Ŕ figlio dell'umanitÓ

(da qui di nuovo accordi aperti)

E         G#       F#
Io non l'ho mai chiesto

        E    G#   F#
╚ una tua necessitÓ

E         G#       F#
Io non l'ho mai chiesto

        E    G#   F#
╚ una tua necessitÓ



RIPETERE IL PONTE



RIPETERE IL RITORNELLO



STACCO:
E G# [F#] B E (G#) F#
E G# [F#] B E (G#) [F#]

(solo basso)

e         g#       f#
Io non l'ho mai chiesto

        e    g#   f#
╚ una tua necessitÓ

e         g#       f#
Io non l'ho mai chiesto

        e    g#   f#
╚ una tua necessitÓ

(da qui accordi aperti, la seconda chitarra suona le note dell'INTRO)

E         G#       F#
Io non l'ho mai chiesto

        E    G#   F#
╚ una tua necessitÓ

E         G#       F#
Io non l'ho mai chiesto

E         G#       F#
Io non l'ho mai chiesto



RIPETERE IL RITORNELLO



OUTRO:
e|-------------------------------|
B|--16-----16------16------------|
G|-----16------16----------------|
D|-------------------------------|
A|-------------------------------|
E|-------------------------------|
    E      G#     [F#]
VIDEO

Se il video non dovesse essere pi¨ disponibile scrivi a indytab@googlemail.com. Grazie!
COMMENTA QUESTA TABLATURA
Devi avere JavaScript attivato per poter commentare! (misura antispam)