IndyTab Logo

BETA VERSION - 321 TABS DISPONIBILI

Cerca una tablatura nel nostro archivio:

Gruppo Canzone


Elenco dei gruppi presenti su IndyTab
Lista di tutte le tablature di IndyTab
DISCLAIMER
Questa tablatura rappresenta l'interpretazione della canzone da parte dell'autore. Può essere usata per scopi di studio, insegnamento e ricerca.

La tab è liberamente riproducibile in forum, blog, siti web (ad eccezione degli archivi di tablature online) e stampabile. Non è obbligatorio ma molto gradito citare la fonte (cioè IndyTab), meglio con un link di rimando al nostro sito.
ACCORDATORE
Per accordare la tua chitarra puoi usare il nostro accordatore online
TAB REQUEST
Stai cercando una tablatura? Suggeriscila compilando il modulo sottostante!

Gruppo
Titolo
Tua Mail

(la tua mail verrà usata per ricontattarti quando la tablatura sarà online)
DELLO STESSO GRUPPO

Peter Punk // Ragazza Speciale

Tablatura tratta dall'album: Peter Punk

(clicca qui per la legenda)

(clicca qui per il video)

    G  E  C  D  E(VII)
e|-------------------------------|
B|-------------------------------|
G|--------5--7----9--------------|
D|--5--2--5--7----9--------------|
A|--5--2--3--5----7--------------|
E|--3--0-------------------------|


--------------------------------------------------------------------------


INTRO:
e|--------------------------------------|
B|--------------------------------------|
G|--------------------------------------|
D|---------------------/9-9-7----7------|
A|----------10-10-7-10--------10--------|
E|-3/15\3-------------------------------|
            C           D

e|----------------------------|
B|----------------------------|
G|--7~-9-7~-------------------|
D|---------------7-9-7----7---|x3
A|----------7-10-------10-----|
E|----------------------------|
    G    E  C      D

e|------------------------------|
B|------------------------------|
G|------------------------------|
D|-------------/9-9-7----7------|
A|--10-10-7-10--------10--------|
E|------------------------------|
    C           D



STROFA:
(palm muted)

G             E          C              D
Conosciuta alla stazione mai pensavo al primo amore 

G               E            C              D
Eri brutta al primo impatto, poi mi sono innamorato 

(da qui la seconda chitarra ripete l'accordo a colpi)

G          D           E(VII)     C
Ad esempio la tua voce per telefono mi piace 

G              D             E(VII)       C(aperto)
Quando poi ti vedo in faccia non vorrei vederne un'altra 



RITORNELLO:
(accordi aperti)

G+RIFF E C              D
           l'aspetto mi ha ingannato 

G+RIFF E C              D
           ma poi ti ho conosciuta 

G+RIFF E C            D
           io so che sei speciale 

C(p.m.)      D(p.m.)
Il mio cuore batte solo per te.

(RIFF SOTTO AL RITORNELLO)
e|--------------|
B|--------------|
G|--------------|
D|--------------|
A|-5~-7-5~------|
E|--------------|



STACCO:
e|----------------------------|
B|----------------------------|
G|--7~-9-7~-------------------|
D|---------------7-9-7----7---|x3
A|----------7-10-------10-----|
E|----------------------------|
    G    E  C      D

e|------------------------------|
B|------------------------------|
G|------------------------------|
D|-------------/9-9-7----7------|
A|--10-10-7-10--------10--------|
E|------------------------------|
    C           D



STROFA:
(palm muted)

G          E            C             D
Non badare ai commenti degli amici e dei parenti 

G               E                C             D
Sempre al bagno con lo specchio guarda ma che bel ranocchio 

(da qui la seconda chitarra ripete l'accordo a colpi)

G                 D                E(VII)       C
Quando prendi il sole in spiaggia resti sempre tutta bianca 

G              D            E(VII)    C(aperto)
Per coprire i tuoi difetti fondotinta e rossetti 



RIPETERE IL RITORNELLO



SOLO:
e|---------------------------------------------------------------|
B|---------------------------------------------------------------|
G|-7~-9-7~------/12-12/11-11/9-7-9---7--9-7----------------------|
D|-------------------------------------------9-7----/9--7--------|
A|-----------------------------------------------10--------10----|
E|---------------------------------------------------------------|
   G    E        C        D          G    E      C      D

e|--------------------------------------------------|
B|--------------------------------------------------|
G|-7~-9-7~------/12-12-11-9-7-----------------------|
D|----------------------------7-9-------------------|
A|--------------------------------------------------|
E|--------------------------------------------------|
   G    E        C        D

e|------------------------------|
B|------------------------------|
G|------------------------------|
D|-------------/9-9-7----7------|
A|--10-10-7-10--------10--------|
E|------------------------------|
    C           D

e|----------------------------|
B|----------------------------|
G|-------------/9-9-7---------|
D|--------------------9-7-----|
A|--10-10-7-10----------------|
E|----------------------------|
    C           D

e|---------------------------------------|
B|---------------------------------------|
G|---------------------------------------|
D|---------------7-9--7----7-------------|
A|--10-10---7-10--------10----10-7-10~~--|
E|---------------------------------------|
    C              D              (G..)



STROFA:
(accordi aperti)

G..
Quando poi sei interrogata, sudi sempre sei impacciata 

G..
Tutta rossa alla lavagna osservata e commentata 

(da qui prima chitarra p.m. e seconda a colpi come sopra)

G                 D              E(VII)   C
Anche in classe i tuoi compagni ridono alle tue spalle 

G            D        E(VII)            C(aperto)
Poi alla ricreazione ti lancian contro  il  pallone 



ULTIMO RITORNELLO E OUTRO:
(accordi aperti)

G+RIFF E C              D
           l'aspetto mi ha ingannato 

G+RIFF E C              D
           ma poi ti ho conosciuta 

G+RIFF E C            D
           io so che sei speciale 

C(p.m.)      D(p.m.)         C(p.m.)
Il mio cuore batte solo per te

              D(p.m.)         C(p.m.)
E' bastato un attimo per capire

            D(p.m.)     E C G D E C G D --- E.. [D][E(VII)]
che sei fatta solo per me
VIDEO

Se il video non dovesse essere più disponibile scrivi a indytab@googlemail.com. Grazie!
COMMENTA QUESTA TABLATURA
Devi avere JavaScript attivato per poter commentare! (misura antispam)