IndyTab Logo

BETA VERSION - 321 TABS DISPONIBILI

Cerca una tablatura nel nostro archivio:

Gruppo Canzone


Elenco dei gruppi presenti su IndyTab
Lista di tutte le tablature di IndyTab
DISCLAIMER
Questa tablatura rappresenta l'interpretazione della canzone da parte dell'autore. Può essere usata per scopi di studio, insegnamento e ricerca.

La tab è liberamente riproducibile in forum, blog, siti web (ad eccezione degli archivi di tablature online) e stampabile. Non è obbligatorio ma molto gradito citare la fonte (cioè IndyTab), meglio con un link di rimando al nostro sito.
ACCORDATORE
Per accordare la tua chitarra puoi usare il nostro accordatore online
TAB REQUEST
Stai cercando una tablatura? Suggeriscila compilando il modulo sottostante!

Gruppo
Titolo
Tua Mail

(la tua mail verrà usata per ricontattarti quando la tablatura sarà online)
DELLO STESSO GRUPPO

Peter Punk // La Città

Tablatura tratta dall'album: Peter Punk

(clicca qui per la legenda)

    C   D   G       G   C   D   E 
e|--3---5---3----|-----------------|
B|--5---5---3----|-----------------|
G|--5---5---4----|------5---7---9--|
D|--5---7---5----|--5---5---7---9--|
A|--3---7---5----|--5---3---5---7--|
E|------5---3----|--3--------------|
   intro pulita      parte punk

--------------------------------------------------------------------------


INTRO:
(chitarra pulita)

G            C             G               C 
Esodo rurale per le strade abbandona le campagne per

D                C                D                  C..  
Soffocare tra lo smog della città e aspettare un’ora un caffè


STACCO:
(distorto punk)
G  


STROFA:

G                    C      G                 C 
Tra trattori campi e pecore bei tramonti ci vediamo noi

D               C             D                     C  
Altroché le ciminiere di città che fan diventare il cielo grigio.


RITORNELLO:

[G] [G] [G][G] D 
Ma  che cazzo  vai a fare là

    [E][E]   [E][E] C 
Una zappa al piede  ed ecco la città

       [G] [G] [G] [G] D 
Ma che shock           i grattacieli

[E][E][E][E] C    D           G  
e  le ore in coda Tensione al top


STROFA:

G                     C 
Chi si sveglia con il gallo

G                     C 
Chi si sveglia per il treno

D            C 
Sono 2 ideologie diverse

D                  C 
Che sconvolgono la vita di sempre

G                C       G                 C 
Se sei invidioso passerà prigioniero nella tua città

D               C 
La mattina voli verso l’autobus

D                    C 
Colazione e barba in tutta fretta


RITORNELLO:
(ripetere ritornello)


SOLO:
e|-------------------------------------------------|
B|-------------------------------------------------|
G|----12-----12-14b16b14------12-----12-14b16b14---|
D|-12----12----------------12----12----------------|
A|-------------------------------------------------|
E|-------------------------------------------------|
      G                       D

e|---------------------------------------------------|
B|---------------------------------------------------|
G|----12-----12-14b16b14p12----12--------------------|
D|-12----12-----------------14----14-----12----------|
A|------------------------------------------14-12-14-|
E|---------------------------------------------------|
      E                        C

e|-----------------------------------------------|
B|----------------------------15b17b15--12-13-12-|
G|----12-----12-14b16b14--12---------------------|
D|-12----12--------------------------------------|
A|-----------------------------------------------|
E|-----------------------------------------------|
      G                          D

e|------------------------------------------------------|
B|------------------------------------------------12----|
G|-14-14b16b14--12-14-12--14-14b16b14p12----12-14----12-|
D|---------------------------------------14-------------|
A|------------------------------------------------------|
E|------------------------------------------------------|
         E                      C           D


OUTRO:

G..                     D..
Gli uccellini che cinguettano

     E..              C 
Ed i clacson che strombettano

G             D  
Resta a te la scelta che vuoi

C         D      G   [G]
Baccano o serenità 
COMMENTA QUESTA TABLATURA
Devi avere JavaScript attivato per poter commentare! (misura antispam)