IndyTab Logo

BETA VERSION - 321 TABS DISPONIBILI

Cerca una tablatura nel nostro archivio:

Gruppo Canzone


Elenco dei gruppi presenti su IndyTab
Lista di tutte le tablature di IndyTab
DISCLAIMER
Questa tablatura rappresenta l'interpretazione della canzone da parte dell'autore. Può essere usata per scopi di studio, insegnamento e ricerca.

La tab è liberamente riproducibile in forum, blog, siti web (ad eccezione degli archivi di tablature online) e stampabile. Non è obbligatorio ma molto gradito citare la fonte (cioè IndyTab), meglio con un link di rimando al nostro sito.
ACCORDATORE
Per accordare la tua chitarra puoi usare il nostro accordatore online
TAB REQUEST
Stai cercando una tablatura? Suggeriscila compilando il modulo sottostante!

Gruppo
Titolo
Tua Mail

(la tua mail verrà usata per ricontattarti quando la tablatura sarà online)
DELLO STESSO GRUPPO

Porno Riviste // 1,2,3 Ciccio

Tablatura tratta dall'album: Le Funebri Pompe

(clicca qui per la legenda)

(clicca qui per il video)

     C#   E    A   E(0)  B
e|-----------------------------|
B|-----------------------------|
G|---6----9--------------------|
D|---6----9----7----2----9-----|
A|---4----7----7----2----9-----|
E|-------------5----0----7-----|


--------------------------------------------------------------------------


RIFF RITORNELLO:
e|---------------------------------------|
B|---------------------------------------|
G|---------------------------------------|
D|-----6---6---6---6---6---6---6---6-----|
A|---4---4---4---4---4---4---4---4-------|
E|---------------------------------------|


RIFF INTRO:

e|-------------------------------------------|
B|-------------------------------------------|
G|---6-6-6-6---9--8--4---6-6-6-6--11--9--4---|   
D|-------------------------------------------|
A|---4-4-4-4---7--6--2---4-4-4-4--9---7--2---|
E|-------------------------------------------|
     C#        E  A      C#       E   A
 
e|-------------------------------------------|
B|-------------------------------------------|
G|---6-6-6-6---9--8--4---6-6-6-6--11---------|   
D|-------------------------------------7-----|
A|---4-4-4-4---7--6--2---4-4-4-4--9----7-----|
E|-------------------------------------5-----|
     C#        E  A      C#       E    A
 


STROFA 1:

    C#               E   A
Non mi chiamo Ciccio 

C#                E   A
tu non rispetti me 

    C#                E   A
c'è stato uno sbaglio

    C#                       E   A 
c'è stato un omicidio in città

  C#              E   A 
è morto sto cazzo

  C#         E   A 
e la libertà

    C#             E   A 
sfregiata e derisa

C#             [E]
ci sono qui io



RITORNELLO (con riff): 

        C#  E(0)  A[A]  [B][B][B]      
ci sono qui io

        C#  E(0)  A[A]  [B][B][B]      
ci sono qui Io

        C#  E(0)  A[A]  [B][B][B]      
ci sono qui io

        C#  E(0)  A[A]      [B][B][B]      
ci sono qui io, io sono qui

        C#  E(0)  A        
ci sono qui io



STROFA 2:

C#.. 
scivoli e piangi, poi in piedi di nuovo 

pisciati a letto, fallo di nuovo
 
C#             E   A
spegni la radio

C#             E   A 
trema nel buio

C#             E   A 
cammina nei rovi

C#            [E]  
fatti del male


 
C#+RiffIntro   E   A 
brucia di colpo

C#             E   A 
sbaglia carriera

C#             E   A 
fa come i santi 

C#            [E]  
credi davvero



RITORNELLO: ripetere RITORNELLO con RIFF:



RIFF INTRO.  



STROFA 3:

  C#(pm)             E(pm)  A(pm)    C#(pm)
e vedi la mia sagoma nei lampioni di notte 
  
  C#(pm)          E(pm)    A(pm)  C#(pm)  [E]
e uomo che mangia cane che mangia uomo

C#(pm)             E(pm)  A(pm)    C#(pm)
vedi la mia sagoma nei lampioni di notte 

  C#(pm)          E(pm)    A(pm)  C#(pm)   E(pm) A(pm)
e uomo che mangia cane che mangia uomo
 
C#           E     A
semino nel deserto

      C#              E   A 
ho il motore chiamato corpo

C#             E   A 
sangue come benzina

C#          [E] 
vermino sono morto
 


ULTIMO RITORNELLO (senza riff):   
      
        C#  E(0)  A[A]  [B][B][B]   (solo chitarra)
ci sono qui io

        C#  E(0)  A[A]  [B][B][B]   (solo chitarra)
ci sono qui io

        C#  E(0)  A[A]  [B][B][B]    
ci sono qui io

        C#  E(0)  A[A]  [B][B][B]    
ci sono qui io

        C#  E(0)  A[A]  [B][B][B]    
ci sono qui io

        C#  E(0)  [A] [A] [A] [A]   
ci sono qui io
VIDEO

Se il video non dovesse essere più disponibile scrivi a indytab@googlemail.com. Grazie!
COMMENTA QUESTA TABLATURA
Devi avere JavaScript attivato per poter commentare! (misura antispam)