IndyTab Logo

BETA VERSION - 321 TABS DISPONIBILI

Cerca una tablatura nel nostro archivio:

Gruppo Canzone


Elenco dei gruppi presenti su IndyTab
Lista di tutte le tablature di IndyTab
DISCLAIMER
Questa tablatura rappresenta l'interpretazione della canzone da parte dell'autore. Può essere usata per scopi di studio, insegnamento e ricerca.

La tab è liberamente riproducibile in forum, blog, siti web (ad eccezione degli archivi di tablature online) e stampabile. Non è obbligatorio ma molto gradito citare la fonte (cioè IndyTab), meglio con un link di rimando al nostro sito.
ACCORDATORE
Per accordare la tua chitarra puoi usare il nostro accordatore online
TAB REQUEST
Stai cercando una tablatura? Suggeriscila compilando il modulo sottostante!

Gruppo
Titolo
Tua Mail

(la tua mail verrà usata per ricontattarti quando la tablatura sarà online)
DELLO STESSO GRUPPO

Marsh Mallows // La Fine del Mondo

Tablatura tratta dall'album: La Fine Del Mondo

(clicca qui per la legenda)

(clicca qui per il video)

    E   F#  C   G   D   A   B    
e|------------------------------|
B|------------------------------|
G|----------5-------7-------4---|
D|--2---4---5---5---7---7---4---|
A|--2---4---3---5---5---7---2---|
E|--0---2-------3-------5-------|

--------------------------------------------------------------------------

ACCORDATURA:
Chitarra accordata un tono sotto

--------------------------------------------------------------------------

RIFF:
e|-----------------------------|
B|-----------------------------|
G|----12-11--12-11-------------|
D|-----------------14-12h14----|
A|-----------------------------|
E|-----------------------------|


INTRO:

RIFF X2 senza accompagnamento.

RIFF X4 con accompagnamento:
E G D A
E G D A
B G D A
E G D A



STROFA:

   E..          G..   
La bestia lui è con me 

      D..          A..
un simpatico amico che ha

          E(p.m.)   G(p.m.)
voglia di calda compagnia 

          D(p.m.)   A(p.m.) [A]
tu questa notte sei mia



PRE-RITORNELLO:

   G                  
Tu sei quella su cui tutto eta è stato detto

   D                    A
tu sei quella su cui tutto eta è stato scritto

   G                     
un sogno proibito in un corpo perfetto

    D                A          [A][A]
con sedici whisky ti stendi sul letto



RITORNELLO:

D         A        B        G       D
Tu sei la fine del mondo la fine di me 

         A         B       G         D
io quasi non ti conosco ma penso già che 

          A        B        G        D
tu sei la fine del mondo la fine per me 

          A       B       G            E..  [E] E..
da troppo tempo lavori in questo night club



STROFA:

   E..     G..   
Io seguo la scia 
  
          D..         A..
in questa notte di follia

           E(p.m.)  G(p.m.)
del tuo profumo che sa 

            D(p.m.)       A(p.m.) [A]\
di sesso, vaniglia e guaranà



PRE-RITORNELLO:

   G                  
Tu sei quella su cui tutto eta è stato detto

   D                    A
tu sei quella su cui tutto eta è stato scritto

      G                  
se il nuovo cliente che viene da fuori

    D                    A      [A][A]
più soldi lui spende più tu ti innamori



RITORNELLO:

D         A        B        G       D
Tu sei la fine del mondo la fine di me 

         A         B       G         D
io quasi non ti conosco ma penso già che 

          A        B        G        D
tu sei la fine del mondo la fine per me 

          A       B       G            E..  [E] E..
da troppo tempo lavori in questo night club



PONTE:

E   F#    C        D
Quanto mi costa offrirti un drink!

e|------------------------|
B|---------------12..-----|
G|---------------14b16..--|  
D|------------------------|  
A|------------------------|
E|------------------------|
   E   F#    C   A..
   Quanto mi costa...

e|-------------|
B|-------------|
G|-----9-------|  ottava suonata ripetutamente 
D|-------------|  per tutto il ponte
A|-----7-------|
E|-------------|



SOLO:

e|--------------------------------------------------------------|
B|---------12----------12----------12----------12----------12---|
G|---14b16----14-14b16----14-14b16----14-14b16----14-14b16------|
D|--------------------------------------------------------------|
A|--------------------------------------------------------------|
E|--------------------------------------------------------------|
     E                       F#    

e|--------------------------------------------------------------|
B|---------12----------12----------12----------12----------12---|
G|---14b16----14-14b16----14-14b16----14-14b16----14-14b16------|
D|--------------------------------------------------------------|
A|--------------------------------------------------------------|
E|--------------------------------------------------------------|
     C                       D    

e|--------------------------------------------------|
B|------------------12------------12-15-12----------|
G|---12-12-14-12-14----14-12---14----------14-12----|
D|--------------------------------------------------|
A|--------------------------------------------------|
E|--------------------------------------------------|
     E                    F#                  (C)

e|------------------------------------------15\-----|
B|---------------12----15-13-12----12-13-15---------|
G|---12-14-12-14----14----------14------------------|
D|--------------------------------------------------|
A|--------------------------------------------------|
E|--------------------------------------------------|
     C                 A                    [G]



PRE-RITORNELLO:

   [G]               [G][G]
Tu sei quella su cui tutto eta è stato detto

[D][D]                 A..
tu sei quella su cui tutto eta è stato scritto

   G                     
un sogno proibito in un corpo perfetto

    D                A          [A]
con sedici whisky ti stendi sul letto

    (D)              (A)
con sedici whisky ti stendi sul letto



RITORNELLO:

D         A        B        G       D
Tu sei la fine del mondo la fine di me 

         A         B       G         D
io quasi non ti conosco ma penso già che 

          A        B        G        D
tu sei la fine del mondo la fine per me 

          A       B       G            E..  [E] E.. [E] E.. [E] E..
da troppo tempo lavori in questo night club
VIDEO

Se il video non dovesse essere più disponibile scrivi a indytab@googlemail.com. Grazie!
COMMENTI
14/5/12 15:37, dario:
e 2 tonalità indietro.. x il resto e apposto

COMMENTA QUESTA TABLATURA
Devi avere JavaScript attivato per poter commentare! (misura antispam)