IndyTab Logo

BETA VERSION - 321 TABS DISPONIBILI

Cerca una tablatura nel nostro archivio:

Gruppo Canzone


Elenco dei gruppi presenti su IndyTab
Lista di tutte le tablature di IndyTab
DISCLAIMER
Questa tablatura rappresenta l'interpretazione della canzone da parte dell'autore. Può essere usata per scopi di studio, insegnamento e ricerca.

La tab è liberamente riproducibile in forum, blog, siti web (ad eccezione degli archivi di tablature online) e stampabile. Non è obbligatorio ma molto gradito citare la fonte (cioè IndyTab), meglio con un link di rimando al nostro sito.
ACCORDATORE
Per accordare la tua chitarra puoi usare il nostro accordatore online
TAB REQUEST
Stai cercando una tablatura? Suggeriscila compilando il modulo sottostante!

Gruppo
Titolo
Tua Mail

(la tua mail verrà usata per ricontattarti quando la tablatura sarà online)
DELLO STESSO GRUPPO

Porno Riviste // Automatico

Tablatura tratta dall'album: Le Funebri Pompe

(clicca qui per la legenda)

(clicca qui per il video)

    Bb  Eb  F
e|----------------|
B|----------------|
G|------8---10----|
D|--8---8---10----|
A|--8---6---8-----|
E|--6-------------|


--------------------------------------------------------------------------


INTRO:
e|------------------------------------------------------|
B|------------------------------------------------------|
G|-7-8-7---7-8-7---7-8-7-------------------7------------|
D|-------8-------8-------8-7/8-8-8-8-8-10----8-10~------|
A|------------------------------------------------------|
E|------------------------------------------------------|
   Bb                       Eb         F

e|----------------------------------------------------------|
B|----------------------------------------------------------|
G|-7-8-7---7-8-7---7-8-7-------10-10-10-10---12-10----10~---|
D|-------8-------8-------8-7/8---------------------12-------|
A|----------------------------------------------------------|
E|----------------------------------------------------------|
   Bb                       Eb               F



STROFA:
(palm muted)

Bb
Sei solamente uno schiavo un puntino

Eb          F
le cose ti dominano

Bb
lupi affamati con un agnellino

Eb          F
le cose ti dominano

(accordi normali)

Bb
è già da tempo ho passato il confine

Eb          F
le cose ti dominano

Bb
e più cammino più tutto è lontano

Eb          F
le cose ti dominano



RITORNELLO:
[Eb]    [Eb]  F
ed è automatico

Bb
le cose comandano

[Eb]    [Eb]  F
ed è automatico

Bb
le cose ti cambiano



STACCO:
Ripetere l'INTRO, partire dall'ultimo Bb del RITORNELLO.



STROFA:
Bb(solo chitarra)
nel bagagliaio c'è un uomo che piange

Eb          F
le cose ti dominano

Bb
donne e bambini con il pannolino

Eb          F
le cose ti dominano

Bb(p.m.)
ti vedo Benjamin stammi vicino

Eb          F
le cose ti dominano

Bb(p.m.)
sei nato vecchio e schiattato bambino

Eb          F
le cose ti dominano



RITORNELLO:
[Eb]    [Eb]  F
ed è automatico

Bb
le cose comandano

[Eb]    [Eb]  F
ed è automatico

Bb                  [F][F][F][Bb] [F][F][F][Bb] [F][F][F]Bb..
le cose ti cambiano



STROFA:
(solo basso)
Sei solamente uno schiavo un puntino

le cose ti dominano

lupi affamati con un agnellino

le cose ti dominano

(accordi normali)

FILL1(fino alla fine della strofa)
è già da tempo ho passato il confine

le cose ti dominano

e più cammino più tutto è lontano

          >>F
le cose ti dominano

(FILL1)
e|----------------------------|
B|----------------------------|
G|-7-8-7-----7-8-7----7-8-7---|
D|-------8---------8--------8-|
A|----------------------------|
E|----------------------------|
(ripetere queste note, prima in palm muted, alla fine aperte)



ULTIMO RITORNELLO:

[Eb]    [Eb]  F  Bb
                 le cose le cose

[Eb]    [Eb]  F  Bb
                 le cose ti cambiano

    *       *       *
e|-----------------------|
B|------------------11---|ripetere più volte le note
G|-12-10/12\10-----------|segnate con *
D|------------------8----|
A|-10--8/10\8------------|x2
E|-----------------------|
   Eb       F        Bb
   le cose  le cose  le cose ti mangiano

[F][F][F][Bb]
VIDEO

Se il video non dovesse essere più disponibile scrivi a indytab@googlemail.com. Grazie!
COMMENTI
18/4/12 20:30, marcos:
grandi!!!!vi prego caricate più tab possibili di questo stupendo cd!!!!!!!!grazie di cuore a chi si prende la briga di caricare tutte le piu belle canzoni indipendenti italiane e non..continuate cosi grandi!!!!

12/5/12 10:49, Luca (staff IndyTab):
grazie! presto inseriremo anche le tab che stiamo preparando delle altre canzoni del cd! seguici magari tramite gli RSS o Facebook per restare aggiornato! a presto!

26/6/12 10:54, Sabri:
Ma le tab per il basso non le mettete?

COMMENTA QUESTA TABLATURA
Devi avere JavaScript attivato per poter commentare! (misura antispam)