IndyTab Logo

BETA VERSION - 321 TABS DISPONIBILI

Cerca una tablatura nel nostro archivio:

Gruppo Canzone


Elenco dei gruppi presenti su IndyTab
Lista di tutte le tablature di IndyTab
DISCLAIMER
Questa tablatura rappresenta l'interpretazione della canzone da parte dell'autore. Pu essere usata per scopi di studio, insegnamento e ricerca.

La tab liberamente riproducibile in forum, blog, siti web (ad eccezione degli archivi di tablature online) e stampabile. Non obbligatorio ma molto gradito citare la fonte (cio IndyTab), meglio con un link di rimando al nostro sito.
ACCORDATORE
Per accordare la tua chitarra puoi usare il nostro accordatore online
TAB REQUEST
Stai cercando una tablatura? Suggeriscila compilando il modulo sottostante!

Gruppo
Titolo
Tua Mail

(la tua mail verr usata per ricontattarti quando la tablatura sar online)
DELLO STESSO GRUPPO

Latte+ // L'Italia Sta Bruciando

Tablatura tratta dall'album: Asociale

(clicca qui per la legenda)

(clicca qui per il video)

     C#..      C#   E    A    B    A#  E(0)   D#   G# 
e|----4----|-------------------------------------------|
B|----5----|-------------------------------------------|
G|----6----|---6----9-------------------------8--------|
D|----6----|---6----9----7----9----8-----2----8----6---|
A|----4----|---4----7----7----9----8-----2----6----6---|
E|----x----|-------------5----7----6-----0---------4---|


--------------------------------------------------------------------------


INTRO:
   
C#..   (x4)

e|---------------------------------------|
B|---------------------------------------|
G|--6---8/9---6---8/9---6---8/9\8--4-----| x4
D|---------------------------------------|
A|--4---6/7---4---6/7---4---6/7\6--2-----|
E|---------------------------------------|
    C#        E         A       B



STROFA:

C#..
C' bisogno di disordine

C#..
per cambiare questo stato di cose

     A                      B
dove siamo governati sempre da farabutti

     C#                         
dove la giustizzia non  mai uguale per tutti

A               B
voglio soltanto kaos



RITORNELLO:
               E                     B
La strada  in fiamme, la rabbia si diffonde

          A                    B
la gente chiama, la legge non risponde

         E                   B
c' confusione la pula sta picchiando

          A                      B       pick-slide
lo stato affonda l'italia sta bruciando (Uoohhh ohh)



RIFF:
e|---------------------------------------|
B|---------------------------------------|
G|--6---8/9---6---8/9---6---8/9\8--4-----| x4
D|---------------------------------------|
A|--4---6/7---4---6/7---4---6/7\6--2-----|
E|---------------------------------------|
    C#        E         A       B



STROFA:

C#..
C' bisogno di disordine

C#..
stare in fila e fare il loro gioco

C#..
la demograzia  al limite

C#..
e una figa oggi vale il tuo voto

       A                           B
mentre gli indagati stanno in parlamento al sicuro

        C#                        
per i giovani non c' lavoro non c' futuro

A               B
voglio soltanto kaos



RITORNELLO:

               E                     B
La strada  in fiamme, la rabbia si diffonde

          A                    B
la gente chiama, la legge non risponde

         E                   B
c' confusione la pula sta picchiando

          A                      B      [B]
lo stato affonda l'italia sta bruciando (go!)



SOLO:
e|----------------------------------------------------------|    
B|----------------------------------------------------------|    
G|----------------------------------------------------------|  
D|-------7-6-------7-6--7p6-----------7-6-------7-6--7p6----|  X2 
A|---7h9-------7h9----------9-----7h9-------7h9----------9--|   
E|----------------------------------------------------------|   
           E(0)      B                  A         B

|-------------|
|-------------|
|-------------|
|---7---------|
|-----9p7--7--|
|-------------|



OUTRO:

|-------------|
|-------------|
|-----9-------|  ottava suonata ripetutamente 
|-------------|  per tutto l'outro
|-----7-------|
|-------------|

E (A#)B (A#)A (A#)B

(D#)E (A)B (A#)A (A#)B  (G#)A  (D#)E\
VIDEO

Se il video non dovesse essere pi disponibile scrivi a indytab@googlemail.com. Grazie!
COMMENTA QUESTA TABLATURA
Devi avere JavaScript attivato per poter commentare! (misura antispam)