IndyTab Logo

BETA VERSION - 321 TABS DISPONIBILI

Cerca una tablatura nel nostro archivio:

Gruppo Canzone


Elenco dei gruppi presenti su IndyTab
Lista di tutte le tablature di IndyTab
DISCLAIMER
Questa tablatura rappresenta l'interpretazione della canzone da parte dell'autore. Può essere usata per scopi di studio, insegnamento e ricerca.

La tab è liberamente riproducibile in forum, blog, siti web (ad eccezione degli archivi di tablature online) e stampabile. Non è obbligatorio ma molto gradito citare la fonte (cioè IndyTab), meglio con un link di rimando al nostro sito.
ACCORDATORE
Per accordare la tua chitarra puoi usare il nostro accordatore online
TAB REQUEST
Stai cercando una tablatura? Suggeriscila compilando il modulo sottostante!

Gruppo
Titolo
Tua Mail

(la tua mail verrà usata per ricontattarti quando la tablatura sarà online)
DELLO STESSO GRUPPO

Max Romeo // I Chase The Devil

Tablatura tratta dall'album: War Ina Babylon

(clicca qui per la legenda)

(clicca qui per il video)

     Am      Em     Dm
e|----5------7------5-----|
B|----5------8------6-----|
G|----5------9------7-----|
D|---(7)----(9)----(7)----|
A|---(7)----(7)----(5)----|
E|---(5)------------------|


--------------------------------------------------------------------------


RIFF1 (every note in palm muted):

e|-------------------------------------------------------|
B|-------------------------------------------------------|
G|-------------------------------------------------------|
D|-------------------------------------------------------|
A|-----------------5-5h7-7-------5-5-5-5---5-7-----------|
E|---5-(5)----5-8------------------------8-----5--5------|
     Am                Em        Dm            Am

e|-------------------------------------------------------|
B|-------------------------------------------------------|
G|-------------------------------------------------------|
D|-------------------------------------------------------|
A|---------------------5-5h7-7-------5-5-5-5---5-7-------|
E|-0--3--5-(5)----5-8------------------------8-----5--5--|
         Am                Em        Dm            Am


RIFF2 (every note in palm muted):

e|------------------------------------------------|
B|------------------------------------------------|
G|------------------------------------------------|
D|--------------7--------------------9------------|
A|---5-5----5-8---5-5-------7-7----7---10-7-7-----|
E|------------------------------------------------|
     Dm                     Em

e|------------------------------------------------|
B|------------------------------------------------|
G|------------------------------------------------|
D|--------------7------------------9--------------|
A|---5-5----5-8---5-5-------7-7------10-10-7-7----|
E|------------------------------------------------|
     Dm                     Em

--------------------------------------------------------------------------


INTRO:

Lucifer, son of the mourning, I'm gonna chase you out of earth!!

e|---/12-----------------------------------------------|
B|------------/12----------------12-12-12-12/13\12-----|
G|-----------------(9)-9/12----------------------------|
D|-----------------------------------------------------|
A|-----------------------------------------------------|
E|-----------------------------------------------------|
               Am

e|-----------------------------------------------------|
B|-------15\12------------------12-12-12-12/13\12------|
G|-----------------(9)-9/12----------------------------|
D|-----------------------------------------------------|
A|-----------------------------------------------------|
E|-----------------------------------------------------|
         Am



CHORUS:

          Am+RIFF1   Em               Dm           Am         
I'm gonna put a iron shirt, and chase Satan out of earth

          Am+RIFF1   Em                   Dm           Am   
I'm gonna put a iron shirt, and chase the devil out of earth

          Am+RIFF1       Em        Dm           Am   
I'm gonna send him outta space, to find another race

          Am+RIFF1       Em        Dm           Am   
I'm gonna send him outta space, to find another race



VERSE 1:

(Dm)+RIFF2                          (Em)
Stan is a evilous man but him can't chocks it on I-man

          (Dm)+RIFF2                             (Em)
So when I checking him my lassing hand and if him split, 

I gaan with him hand



CHORUS:

          Am+RIFF1   Em               Dm           Am         
I'm gonna put a iron shirt, and chase Satan out of earth

          Am+RIFF1   Em                   Dm           Am   
I'm gonna put a iron shirt, and chase the devil out of earth

          Am+RIFF1       Em        Dm           Am   
I'm gonna send him outta space, to find another race

          Am+RIFF1       Em        Dm           Am   
I'm gonna send him outta space, to find another race



RIFF:

e|-----------------------------------------------------|
B|----/12---------------12-12-12-12/13\12--------------|
G|-----------(9)-9/12----------------------------------|
D|-----------------------------------------------------|
A|-----------------------------------------------------|
E|-----------------------------------------------------|
       Am

e|-----------------------------------------------------|
B|-------15\12------------------12-12-12-15\12---------|
G|----------------(9)-9/12-----------------------------|
D|-----------------------------------------------------|
A|-----------------------------------------------------|
E|-----------------------------------------------------|
         Am



VERSE 2:

          Dm                              Em 
Him haffi drop him fork and run Him can't stand up to Jah Jah son

          Dm                   Em 
Him haffi lef' ya with him gun Dig of with him bomb



CHORUS:

        (Am)+RIFF1  (Em)             (Dm)         (Am)        
I'm gonna put a iron shirt, and chase Satan out of earth

        (Am)+RIFF1  (Em)                 (Dm)          Am   
I'm gonna put a iron shirt, and chase the devil out of earth

          Am+RIFF1       Em        Dm           Am   
I'm gonna send him outta space, to find another race

          Am+RIFF1       Em        Dm           Am   
I'm gonna send him outta space, to find another race



VERSE 3:

(Dm)+RIFF2                          (Em)
Stan is a evilous man but him can't chocks it on I-man

          (Dm)+RIFF2                             (Em)
So when I checking him my lassing hand and if him split, 

I gaan with him hand



CHORUS:

          Am+RIFF1   Em               Dm           Am         
I'm gonna put a iron shirt, and chase Satan out of earth

          Am+RIFF1   Em                   Dm           Am   
I'm gonna put a iron shirt, and chase the devil out of earth

          Am+RIFF1       Em        Dm           Am   
I'm gonna send him outta space, to find another race

          Am+RIFF1       Em        Dm           Am   
I'm gonna send him outta space, to find another race



OUTRO:

Am+RIFF1   Em    Dm    Am  

Am+RIFF1   Em    Dm    Am  

Am+RIFF1          Em             Dm                Am  
Move ya with your gun, mi sey fe lef' ya with your bomb

Am+RIFF1          Em             Dm                Am  
Move ya with your gun, mi sey fe lef' ya with your bomb...
VIDEO

Se il video non dovesse essere più disponibile scrivi a indytab@googlemail.com. Grazie!
COMMENTA QUESTA TABLATURA
Devi avere JavaScript attivato per poter commentare! (misura antispam)