IndyTab Logo

BETA VERSION - 321 TABS DISPONIBILI

Cerca una tablatura nel nostro archivio:

Gruppo Canzone


Elenco dei gruppi presenti su IndyTab
Lista di tutte le tablature di IndyTab
DISCLAIMER
Questa tablatura rappresenta l'interpretazione della canzone da parte dell'autore. Può essere usata per scopi di studio, insegnamento e ricerca.

La tab è liberamente riproducibile in forum, blog, siti web (ad eccezione degli archivi di tablature online) e stampabile. Non è obbligatorio ma molto gradito citare la fonte (cioè IndyTab), meglio con un link di rimando al nostro sito.
ACCORDATORE
Per accordare la tua chitarra puoi usare il nostro accordatore online
TAB REQUEST
Stai cercando una tablatura? Suggeriscila compilando il modulo sottostante!

Gruppo
Titolo
Tua Mail

(la tua mail verrà usata per ricontattarti quando la tablatura sarà online)
DELLO STESSO GRUPPO

Pensione Libano // Ali di Cera

Tablatura tratta dall'album: E' Tutto Ok?!

(clicca qui per la legenda)

(clicca qui per il video)

e|-----|-----|-----|-----|-----|
B|-----|-----|-----|-----|-----|
G|-----|-----|-----|--7--|-----|
D|--9--|--7--|--5--|--7--|--4--|
A|--9--|--7--|--5--|--5--|--4--|
E|--7--|--5--|--3--|-----|--2--|
    B     A     G     D     F#

--------------------------------------------------------------------------

INTRO: 

e|-----------------------------------------------------------|
B|-----------------------------------------------------------|
G|-----7----------7-7-(4)----------7------------6------------|
D|---9----9-----5-------(7)(5)---7-----7------7---(7)--------| X2
A|-9--------9------------------5-----5---5--7--------(9)(7)--|
E|-----------------------------------------------------------|



STROFA 1 (riff X3):

Hai bisogno di me, e non riesco a farne a meno
Hai bisogno di me, perche' non sono tranquillo
Hai bisogno di me, che non so tirare il freno!

B A/B



RITORNELLO:

B   G          D         A
Sei diverso da me, cerco lei nelle notti

B   G          D          A
Uso e abuso di te, con la testa tra le mani

B      G        D      A
Ali di cera con me, precipita il mio volo,

e|---------------(in p.m.)--------------------|
B|--------------------------------------------|
G|------------11--------------------11--------|
D|-------11------11---11------11-------11-----|  x2
A|---9-9----9-------9-------9----9--------9---|
E|--------------------------------------------|
     F#..      
     volo...           



STROFA 2:(A COLPI)

B      G       D         A     
Hai bisogno di me, e non riesco a farne a meno

B      G       D          A
Hai bisogno di me, il mio corpo e' tuo schiavo

B      G       D           [A]
hai bisogno di me, gela il sangue nelle vene

B A/B



RITORNELLO:

B      G       D          A
Sei diverso da me, cerco lei nelle notti

B      G       D          A
Uso e abuso di te, con la testa tra le mani

B      G        D     A   
Ali di cera con me precipita il mio volo,

e|---------------(in p.m.)--------------------|
B|--------------------------------------------|
G|------------11--------------------11--------|
D|-------11------11---11------11-------11-----|  x2
A|---9-9----9-------9-------9----9--------9---|
E|--------------------------------------------|
     F#..  
     volo...



PONTE:

e|-------------------------------------------------|
B|-------------------------------------------------|
G|-------------------------------------------------|  
D|---------------------------------5~--------------|
A|-------------------------------------------------|
E|-------------------------------------------------|
       B(p.m.)                     G(p.m.)
   Con molta discrezione, sua maesta' mi si propone

e|-------------------------------------------------|
B|-------------------------------------------------|
G|-----7~------------------------------------------|  
D|-----------------------------7~------------------|
A|-------------------------------------------------|
E|-------------------------------------------------|
       D(p.m.)                 A(p.m.)
   Non riesco a dirgli no, non riesco a dirgli no

e|-----------------------------|
B|-----------------------------|
G|-4~-----------7~-------------|  
D|-------5~------------7~------|
A|-----------------------------|
E|-----------------------------|
   B(pm) G(pm)  D(pm) A(pm)
   Hai bisogno, Hai bisogno?!



RITORNELLO:

B      G       D          A
Sei diverso da me, cerco lei nelle notti

B      G       D          A
Uso e abuso di te, con la testa tra le mani

B      G        D     A   
Ali di cera con me precipita il mio volo,


e|---------------(in p.m.)--------------------|
B|--------------------------------------------|
G|------------11--------------------11--------|
D|-------11------11---11------11-------11-----|  x2
A|---9-9----9-------9-------9----9--------9---|
E|--------------------------------------------|
     F#..                 
     volo...                
                
e|---------------(in p.m.)--------------------|
B|--------------------------------------------|
G|------------11--------------------11--------|
D|-------11------11---11------11-------11-----|  x2
A|---9-9----9-------9-------9----9--------9---|
E|--------------------------------------------|


e|------------------------------------------------------------|
B|------------------------------------------------------------|
G|---------------------11------------------11--11-11-11----11-| x2
D|-------------11---11-------------11---11--------------11----| 
A|---9--9-9--9---9----------9--9-9----9-----------------------|
E|------------------------------------------------------------|
     B..               G..  D..           A..                 

e|--------------------------------------------------------------------|
B|--/10--10-7--------------------------10---10-12-10----10-12-10--10--|
G|-----------9-7----7-9-9b11r9-7-7-------11----------11---------11----|
D|-----------------9------------9-------------------------------------|
A|--------------------------------------------------------------------|
E|--------------------------------------------------------------------|
     B         G                 D              A

e|--------------------------------------------------------------------|
B|--/10--10-7--------------------------------------10--10-12-10-------|
G|-----------9-7----7-9-9b11r9-7-7--------7-9b11-----11--------11-----|
D|-----------------9------------9-----7h9-----------------------------|
A|--------------------------------------------------------------------|
E|--------------------------------------------------------------------|
     B         G                 D          A   
 
e|--------------------------------------------------------------------|
B|--------------------------------------------------7-7---------------|
G|-------7-7---7-9-9b11r9-7---7-9---------7-7---7-9----9-9-7-7-6-6----|
D|---7h9-----9--------------9---------7h9-----9-----------------------|
A|--------------------------------------------------------------------|
E|--------------------------------------------------------------------|
     B             G                  D             A

  (* ripetere più volte la nota) 
e|------------------------------------------------------------|
B|-------------------7-10-7-----------------------7-10-7------|
G|---------------7-9--------------------------7-9-------------|
D|---9*------7h9-----------------9*------7h9------------------|
A|------------------------------------------------------------|
E|------------------------------------------------------------|
     B  G D  A                   B  G D  A

e|---------------------------------------------------14-------|
B|------------------------------------------14----14----------|
G|---------------------11---------11--11-11----11-------------| x2
D|-------------11---11----------------------------------------| 
A|---9--9-9--9---9--------------------------------------------|
E|------------------------------------------------------------|
     B..               G..        D..                A..



OUTRO:

B..
VIDEO

Se il video non dovesse essere più disponibile scrivi a indytab@googlemail.com. Grazie!
COMMENTA QUESTA TABLATURA
Devi avere JavaScript attivato per poter commentare! (misura antispam)