IndyTab Logo

BETA VERSION - 321 TABS DISPONIBILI

Cerca una tablatura nel nostro archivio:

Gruppo Canzone


Elenco dei gruppi presenti su IndyTab
Lista di tutte le tablature di IndyTab
DISCLAIMER
Questa tablatura rappresenta l'interpretazione della canzone da parte dell'autore. Può essere usata per scopi di studio, insegnamento e ricerca.

La tab è liberamente riproducibile in forum, blog, siti web (ad eccezione degli archivi di tablature online) e stampabile. Non è obbligatorio ma molto gradito citare la fonte (cioè IndyTab), meglio con un link di rimando al nostro sito.
ACCORDATORE
Per accordare la tua chitarra puoi usare il nostro accordatore online
TAB REQUEST
Stai cercando una tablatura? Suggeriscila compilando il modulo sottostante!

Gruppo
Titolo
Tua Mail

(la tua mail verrà usata per ricontattarti quando la tablatura sarà online)
DELLO STESSO GRUPPO

Porno Riviste // In Mezzo A Tutto Questo

Tablatura tratta dall'album: La Seconda Possibilità

(clicca qui per la legenda)

(clicca qui per il video)

    C  G  C#  G#  D#
e|-----------------------------|
B|-----------------------------|
G|--5-----6-------8------------|
D|--5--5--6---6---8------------|
A|--3--5--4---6---6------------|
E|-----3------4----------------|


--------------------------------------------------------------------------


INTRO:
e|-------------------------------------------------------------------|
B|-------------------------------------------------------------------|
G|-----0-------0-------0-----------------0-------0-------0-----------|
D|---1---1---1---1---1---1---1---1-----0---0---0---0---0---0---0---0-|x3
A|-3-------3-------3-------3---3-----2-------2-------2-------2---3---|
E|-------------------------------------------------------------------|
   [C]     [C]     [C]     [C] [C]   [G]     [G]     [G]     [G] [G]
         (la prima volta senza accordi di accompagnamento)

e|------------------------------------------------------|
B|------------------------------------------------------|
G|------------------------------------------------------|
D|-----------6~-5~--------------------------------------|
A|-----3-5-6--------------3-5-6----2~---2-/6-5--(3)-----|
E|-(4)----------------(4)-------------------------------|
    G#       D#        G#          G            (C)



STROFA:
(palm muted)
C                        G# 
Popoli stretti nelle città

                     C#
stretti e gonfi nell'abito

            G
dipingo le facciate dirupi era

        C                 G#
cimici diavolo al fuoco lunatico

                C#
e festeggiano l'atomo

                    G
sulla pelle di chi sogna e ogni giorno spera



PONTE:

       D#(aperto)                G(palm muted)
stare calmo è un problema mio ma anche se volessi


in mezzo a tutto questo

                         [G]
in mezzo a tutto questo



STROFA:
(palm muted)
C
rubami rubami rubami

           G
io sono il quadro che nutre i tuoi occhi

    C#
e trovami trovami e rubami

         G
mi sentirai come un colpo di pistola

  C
e legami legami legami

             G#
perchè altrimenti entrerò nei tuoi sogni

             C#
proprio perchè non saprò più come amarti

           [G]
sarò la troia che uccide i tuoi giorni



RITORNELLO:
(accordi aperti)

        C#
siluri fonici dentro la testa

        G#
sintonizzati verso un'unica strada

           D#
non sei dimentica di quello che è vero ormai

           G
ma crede ancora in amore sincero allora

(di nuovo in palm muted)

C#
rubami rubami rubami

            G#
io sono il quadro che nutre i tuoi occhi

             C
proprio perchè non saprò più come amarti

          [G]
sarò la troia che uccide i tuoi giorni



OUTRO:
[C] [C] [C] [C][C]
[G] [G] [G] [G][G]
[C] [C] [C] [C][C]
[G] [G] [G]

e|------------------------------------------------------|
B|------------------------------------------------------|
G|------------------------------------------------------|
D|-----------6~-5~--------------------------------------|
A|-----3-5-6--------------3-5-6----2~---2-/6-5--3~------|
E|-(4)----------------(4)-------------------------------|
    G#       D#        G#          G            C..
VIDEO

Se il video non dovesse essere più disponibile scrivi a indytab@googlemail.com. Grazie!
COMMENTA QUESTA TABLATURA
Devi avere JavaScript attivato per poter commentare! (misura antispam)