IndyTab Logo

BETA VERSION - 321 TABS DISPONIBILI

Cerca una tablatura nel nostro archivio:

Gruppo Canzone


Elenco dei gruppi presenti su IndyTab
Lista di tutte le tablature di IndyTab
DISCLAIMER
Questa tablatura rappresenta l'interpretazione della canzone da parte dell'autore. Può essere usata per scopi di studio, insegnamento e ricerca.

La tab è liberamente riproducibile in forum, blog, siti web (ad eccezione degli archivi di tablature online) e stampabile. Non è obbligatorio ma molto gradito citare la fonte (cioè IndyTab), meglio con un link di rimando al nostro sito.
ACCORDATORE
Per accordare la tua chitarra puoi usare il nostro accordatore online
TAB REQUEST
Stai cercando una tablatura? Suggeriscila compilando il modulo sottostante!

Gruppo
Titolo
Tua Mail

(la tua mail verrà usata per ricontattarti quando la tablatura sarà online)
DELLO STESSO GRUPPO

Scacciapensieri // Brivido

Tablatura tratta dall'album: Mistero Della Fede

(clicca qui per la legenda)

(clicca qui per il video)

    B   G   D   A     
e|------------------|
B|------------------|
G|--4-------7-------|
D|--4---5---7---7---|
A|--2---5---5---7---|
E|------3-------5---|

--------------------------------------------------------------------------


INTRO:

GUITAR 1:
e|----------------------------------------------------------|
B|----------------------------------------------------------|
G|----------------------------------------------------------|
D|-------5-4------------5-4-----------7-5-4---4-4--7-7--9---| 
A|--2-2------5--------------5-2--/5-5---------4-4--5-5--7---|
E|-------------3-3-3----------------------------------------|

GUITAR 1 (X2):
e|----------------------------------------------------------|
B|----------------------------------------------------------|
G|----------------------------------------------------------|
D|-------5-4------------5-4-----------7-5-4---4-4--7-7--9---|  
A|--2-2------5--------------5-2--/5-5---------4-4--5-5--7---|  
E|-------------3-3-3----------------------------------------|
GUITAR 2 (X2):
e|----------------------------------------------------------|
B|----------------------------------------------------------|
G|--4----------------------------7------------6-6--11-11-12-|
D|--4----------5-----------------7--------------------------|  
A|--2----------5-----------------5------------4-4--9--9--10-|  
E|-------------3--------------------------------------------|
    B          G                 D



STROFA:(p.m.)

B	           G                     D
Tra finzione e realtà, l’equilibrio scivola,

e|--------------------------------------------------|
B|--------------------------------------------------| 
G|------------------------------6-6-6-7-6-4..-------|
D|--------------------------------------------------|
A|------------------------------4-4-4-5-4-2..-------|
E|--------------------------------------------------|
                [D] [D]A	           B
   Equazione svolta da un meccanismo ipocrita.

 	             G                            D
Non c’è un cazzo di lavoro, peggio che cambiar mestiere,

 		 [D] [D]A (p.m. + apeto)
con la cassa integrazione, forse arrivo a fine mese.



PRE RIT: (B e G a colpi, D e A normali)

B		G
Ma tu dove vai? Soldi non ne hai!

D	 A
La vita non ha prezzo

B		  G
Ma lo stato sai, ruba i soldi miei!

D	  A
Ti tassa anche l’amplesso



RIT:

B	      G  D	   A
Sento un brivido che corre nella schiena

B	   G  D	         A	     B(p.m. a colpi)
Io combatterò contro questo sistema 



STROFA: (p.m.)

B		   G			       D
C’è chi parla di ripresa, ma mi sembra più una scusa

e|-------------------------------------------------|
B|-------------------------------------------------| 
G|-----------------------------6-6-6-7-6-7..-------|
D|-------------------------------------------------|
A|-----------------------------4-4-4-5-4-5..-------|
E|-------------------------------------------------|
  		[D][D]A	                 B
Un’Italia da ingannare, un pianeta da salvar



B (note a colpi)
Non ho... 
 
(in p.m. dura fino alla fine della strofa)
e|-----------------------------------------------------------------------|
B|-----------------------------------------------------------------------|
G|-----------------------------------------------------------------------|
D|------4-2--4-2--5-4------4-2--4-2--5-4-----7-5--4--5-4-----------------| 
A|--2-2----------------2-2----------------5-5------5--------7-5--4---5-4-|
E|-------------------------------------------------------5-5------5------|

                       G
...più bisogno di fare carriera

	D
Questo freddo fa paura

	A
Questa storia non finisce mai!



PRE RIT (B e G a colpi, D e A normali):

B		 G
Ma tu dove vai? Soldi non ne hai!

D	 A
La vita non ha prezzo

B		  G
Ma lo stato sai, ruba i soldi miei!

D	  A
Ti tassa anche l’amplesso



RIT:

B	      G  D	   A
Sento un brivido che corre nella schiena

B	   G  D	         A           B(p.m. a colpi)  [B] B\
Io combatterò contro questo sistema 



STROFA

Futuro incerto, presente critico,

Dammi una pillola, un ansiolitico,

[B][B]	  [G][G]   [D][D]   A..
Se penso al domani divento stitico,

[B][B]	 [G][G]           [D][D]    A(p.m.)
Se penso che i miei soldi, ve li tenete voi...



PONTE:

B	   	G       D		A 
Ho trovato la soluzione a tutti i miei guai

B	    G           D           A
Una corda o una pistola non ti aiuterà



GUITAR 1 (X2):
e|----------------------------------------------------------|
B|----------------------------------------------------------|
G|----------------------------------------------------------|
D|-------5-4------------5-4-----------7-5-4---4-4--7-7--9---|  
A|--2-2------5--------------5-2--/5-5---------4-4--5-5--7---|  
E|-------------3-3-3----------------------------------------|
GUITAR 2 (X2):                                  Un brivido...
e|----------------------------------------------------------|
B|----------------------------------------------------------|
G|--4----------------------------7------------6-6--11-11-12-|
D|--4----------5-----------------7--------------------------|  
A|--2----------5-----------------5------------4-4--9--9--10-|  
E|-------------3--------------------------------------------|
    B          G                 D



OUTRO:

GUITAR 1:
e|-------------------------------|
B|-------------------------------|
G|--7----9--11--12------11-5-----| X2 suonate solo una volta
D|-------------------------------| X2 suonate ripetutamente  
A|--5----7--9---10------9--7-----|  
E|-------------------------------|
GUITAR 2:
e|-------------------------------|
B|-------------------------------|
G|--4----6--7--------------------|
D|--------------5-------7--------| X2 suonate solo una volta
A|--2----4--5--------------------| X2 suonate ripetutamente
E|--------------3-------5--------|


[B][B]  [B][B]  [B][B]  [B][B]  B\
VIDEO

Se il video non dovesse essere più disponibile scrivi a indytab@googlemail.com. Grazie!
COMMENTA QUESTA TABLATURA
Devi avere JavaScript attivato per poter commentare! (misura antispam)