IndyTab Logo

BETA VERSION - 321 TABS DISPONIBILI

Cerca una tablatura nel nostro archivio:

Gruppo Canzone


Elenco dei gruppi presenti su IndyTab
Lista di tutte le tablature di IndyTab
DISCLAIMER
Questa tablatura rappresenta l'interpretazione della canzone da parte dell'autore. Può essere usata per scopi di studio, insegnamento e ricerca.

La tab è liberamente riproducibile in forum, blog, siti web (ad eccezione degli archivi di tablature online) e stampabile. Non è obbligatorio ma molto gradito citare la fonte (cioè IndyTab), meglio con un link di rimando al nostro sito.
ACCORDATORE
Per accordare la tua chitarra puoi usare il nostro accordatore online
TAB REQUEST
Stai cercando una tablatura? Suggeriscila compilando il modulo sottostante!

Gruppo
Titolo
Tua Mail

(la tua mail verrà usata per ricontattarti quando la tablatura sarà online)
DELLO STESSO GRUPPO

Madness // Tarzan's Nuts

Tablatura tratta dall'album: One Step Beyond...

(clicca qui per la legenda)

(clicca qui per il video)

    A#m   Bm   Em   F#   D    A    Cm    Fm    G    A#   D#
e|---6----7----7----2----5----5----8-----8-----3----6----6-----|
B|---6----7----8----2----7----5----8-----9-----3----6----8-----|
G|---6----7----9----3----7----6----8-----10----4----7----8-----|
D|--(8)--(9)--(9)--(4)--(7)--(7)--(10)--(10)--(5)--(8)--(8)----|
A|--(8)--(9)--(7)--(4)--(5)--(7)--(10)--(8)---(5)--(8)--(6)----|
E|--(6)--(7)-------(2)-------(5)--(8)---------(3)--(6)---------|


--------------------------------------------------------------------------


INTRO:

(A#m)/[Bm] [Bm] [Bm]    
(A#m)/[Bm] [Bm] [Bm]
(A#m)/[Bm] [Bm] [Bm]    
(A#m)/[Bm] [Bm] Bm

Bm   
Hey you seen jane? No man, ok I'll catch the train
Can you wait a long time? No, we gotta catch a flight
Well, that's roots man
No man it's a fruit
So give my stone, I'll save it for tonight


VERSE 1:

Bm  Em  Bm  F#  

Bm  Em  Bm F# Bm


Bm  Em  Bm  F#  

Bm  Em  Bm F# Bm



BRIDGE 1:

Em  A  D  F#  (X2)


VERSE 2:

Bm  Em  Bm  F#  

Bm  Em  Bm F# Bm



VERSE 3:

Cm  Fm  Cm  G

Cm  Fm  Cm G Cm



BRIDGE 2:

Fm A#  D#  G   (X2)



VERSE 4:

Cm  Fm  Cm  G

Cm  Fm  Cm G Fm G Fm G Cm....



PIANO RIFF (arrangement for guitar)

e|-----------------------------------------------------------------|
B|-----------------------------12----------------------------------|
G|--------11--------------9-12-----12-9------11-12-11---9----9-----|
D|---9-12-----12-9----------------------------------------12---11--|
A|-----------------------------------------------------------------|
E|-----------------------------------------------------------------|

e|-----------------------------------------------------------------|
B|-----------------------------12----------------------------------|
G|--------11--------------9-12-----12-9------11-12-11---9----------|
D|---9-12-----12-9----------------------------------------11-12-9--|
A|-----------------------------------------------------------------|
E|-----------------------------------------------------------------|


e|-----------------------------------------------------------------|
B|----------------------------10-----------------------------------|
G|---12-11-9---11-12---11-12------12-9-----11-12-11-9-----9-11-----|
D|-----------------------------------------------------12----------|
A|-----------------------------------------------------------------|
E|-----------------------------------------------------------------|

e|----------------------------------------------------------------------|
B|----------------------------10----------------------------------------|
G|---12-11-9---11-12---11-12------12-9-----11-12-11-9-----9-------11----|
D|-----------------------------------------------------12-----9-11--11--|
A|-----------------------------------------------------------9----------|
E|----------------------------------------------------------------------|

The second part is the same, with every note shifted +1.

VIDEO

Se il video non dovesse essere più disponibile scrivi a indytab@googlemail.com. Grazie!
COMMENTA QUESTA TABLATURA
Devi avere JavaScript attivato per poter commentare! (misura antispam)