IndyTab Logo

BETA VERSION - 321 TABS DISPONIBILI

Cerca una tablatura nel nostro archivio:

Gruppo Canzone


Elenco dei gruppi presenti su IndyTab
Lista di tutte le tablature di IndyTab
DISCLAIMER
Questa tablatura rappresenta l'interpretazione della canzone da parte dell'autore. Può essere usata per scopi di studio, insegnamento e ricerca.

La tab è liberamente riproducibile in forum, blog, siti web (ad eccezione degli archivi di tablature online) e stampabile. Non è obbligatorio ma molto gradito citare la fonte (cioè IndyTab), meglio con un link di rimando al nostro sito.
ACCORDATORE
Per accordare la tua chitarra puoi usare il nostro accordatore online
TAB REQUEST
Stai cercando una tablatura? Suggeriscila compilando il modulo sottostante!

Gruppo
Titolo
Tua Mail

(la tua mail verrà usata per ricontattarti quando la tablatura sarà online)
DELLO STESSO GRUPPO

CCCP Fedeli Alla Linea // Curami

Tablatura tratta dall'album: 1964-1985 Affinità-divergenze fra il compagno Togliatti e noi del conseguimento della maggiore età

(clicca qui per la legenda)

(clicca qui per il video)

    D   B    F#   F#(IX)  E   E(0)  D#  D(barré)
e|----------------------------------------5---|
B|----------------------------------------7---|
G|--7---4---------11------9---------8-----7---|
D|--7---4----4----11------9-----2---8-----7---|
A|--5---2----4----9-------7-----2---6-----5---|
E|-----------2------------------0-------------|


--------------------------------------------------------------------------


INTRO:

D B F#   (p.m. X3)

D B F    (X2)

E F#(IX)   (p.m. X3)


e|-----------------------------------------------------------------|
B|-----------------------------------------------------------------|
G|--11-11-11----11-11-----7-7-7---7-7---------3-3-3-3-4-4-4-3-3-3--| 
D|-----------12-----------------9-------4-4-4-(4)(4)(4)(4)(4)(4)---|
A|-----------------------------------------------------------------|
E|-----------------------------------------------------------------|
    D                     B             F#   (giro di basso)
   
e|-----------------------------------------------------------------|
B|-----------------------------------------------------------------|
G|--11-11-11----11-11-----7-7-7---9-----------3-3-3-3-4-4-4-3-3-3--| 
D|-----------12-----------------9---9---4-4-4-(4)(4)(4)(4)(4)(4)---|
A|-----------------------------------------------------------------|
E|-----------------------------------------------------------------|
    D                     B             F#   (giro di basso)

e|---------------------------------------------------------------------|
B|------------------------10-10-10----10-10----------------------------|
G|--11-11-11----11-11--------------11--------------3-3-3-3-4-4-4-3-3-3-| 
D|-----------12------------------------------4-4-4-(4)(4)(4)(4)(4)(4)--|
A|---------------------------------------------------------------------|
E|---------------------------------------------------------------------|
    D                     B                  F#  (giro di basso)

e|---------------------------------------------------------------------|
B|---------------------------------------------------------------------|
G|--11-11-11----11-11----11-11-11----11-11----11-11-11----11-11-11-11--| 
D|-----------12-------------------12-------------------12-12-12-12-12--|
A|---------------------------------------------------------------------|
E|---------------------------------------------------------------------|
     D                    B                   F#  (giro di basso)

e|--------------------------------------|
B|--------------------------------------|
G|--11-11-11-11-11-11-11-11-11----/18~--|
D|--12-12-12-12-12-12-12-12-12----------|
A|--------------------------------------|
E|--------------------------------------|
    F#


E(0) F#   (p.m. X3)



RITORNELLO:

D B F# 

D      B      F#
Curami curami curami

D                   B   F#(IX) 
prendimi in cura da te, prendimi in cura da te

D      B      F#
Curami curami curami

D                      B   F#(IX) 
che ti venga voglia di me, che ti venga voglia di me, 

D      B      F#
Curami curami curami



STROFA:

E F#(IX)   (p.m.)

   E(p.m.)                   F#(IX)(p.m.)
verranno al contrattacco con elmi ed armi nuove

   E(p.m.)                    F#(IX)(p.m.)
verranno al contrattacco ma intanto adesso 



RITORNELLO:

D      B      F#
Curami curami curami

D      B      F#
Curami curami curami

D
Cuuuuuraaaamiiiiiii

D                      D(barré)
Cuuuuuraaaamiiiiiii



PONTE:

solo una terapia   (xn)


D  [D#][D#]   X2



STROFA:

E F#(IX)   (p.m.)

   E(p.m.)                   F#(IX)(p.m.)
verranno al contrattacco con elmi ed armi nuove

   E(p.m.)                    F#(IX)(p.m.)
verranno al contrattacco ma intanto adesso 



RITORNELLO:

D      B      F#
Curami curami curami

D      B      F#
Curami curami curami
 
D     B    F#(IX)
Cuuuuuraaaamiiiiiii

D     B    F#
Cuuuuuraaaamiiiiiii

D     B    F#
Cuuuuuraaaamiiiiiii

D     B    F#
Cuuuuuraaaamiiiiiii



OUTRO:

D   B   F#  X2..

VIDEO

Se il video non dovesse essere più disponibile scrivi a indytab@googlemail.com. Grazie!
COMMENTA QUESTA TABLATURA
Devi avere JavaScript attivato per poter commentare! (misura antispam)