IndyTab Logo

BETA VERSION - 321 TABS DISPONIBILI

Cerca una tablatura nel nostro archivio:

Gruppo Canzone


Elenco dei gruppi presenti su IndyTab
Lista di tutte le tablature di IndyTab
DISCLAIMER
Questa tablatura rappresenta l'interpretazione della canzone da parte dell'autore. Può essere usata per scopi di studio, insegnamento e ricerca.

La tab è liberamente riproducibile in forum, blog, siti web (ad eccezione degli archivi di tablature online) e stampabile. Non è obbligatorio ma molto gradito citare la fonte (cioè IndyTab), meglio con un link di rimando al nostro sito.
ACCORDATORE
Per accordare la tua chitarra puoi usare il nostro accordatore online
TAB REQUEST
Stai cercando una tablatura? Suggeriscila compilando il modulo sottostante!

Gruppo
Titolo
Tua Mail

(la tua mail verrà usata per ricontattarti quando la tablatura sarà online)

Horace Andy // Skylarking

Tablatura tratta dall'album: Skylarking

(clicca qui per la legenda)

(clicca qui per il video)

      Am    Dm
e|----5-----5----|
B|----5-----6----|
G|----5-----7----|
D|---(7)---(7)---|
A|---(7)---(5)---|
E|---(5)---------|


--------------------------------------------------------------------------

All the song with reggae rhythm


INTRO (Keyboard riff for guitar):

e|-----------------------------------------------------------------|
B|---10-13-10-10-----10-13-10-10-------------------10-13-10-10-----|
G|-----------------------------------7-10-7-7----------------------|
D|-----------------------------------------------------------------|
A|-----------------------------------------------------------------|
E|-----------------------------------------------------------------|
     Am              Am              Dm            Am

e|-----------------------------------------------------------------|
B|---10-13-10-10-----10-13-10-10-----------------------------------|
G|-----------------------------------7-10-7-7----7-5---------------|
D|----------------------------------------------------7-10-7-7-----|
A|-----------------------------------------------------------------|
E|-----------------------------------------------------------------|
     Am              Am              Dm               Am



CHORUS:

   Am          Am   
Skylarking, skylarking

       Dm              Am
That's what youth do today

   Am          Am   
Skylarking, skylarking

            Dm                     Am
Before they stand up firm on their feet



VERSE:
      Am             Am
Get a likkle work, a likkle work

    Dm                     Am
And earn their bread honestly

              Am
Beggin' you a five cent, sir

              Am
Beggin' you a ten cent, sir

       Dm               Am
Cannot help, no, cannot help

              Am                     Am
So if you all keep on doing what you all are doing

         Dm               Am 
You will end up, up up in jail



RIFF (Keyboard riff for guitar):

e|-----------------------------------10-13-10-10---10-8---------------|
B|---10-13-10-10-----10-13-10-10-------------------------10-13-10-10--|
G|--------------------------------------------------------------------|
D|--------------------------------------------------------------------|
A|--------------------------------------------------------------------|
E|--------------------------------------------------------------------|
     Am              Am              Dm                  Am

e|-----------------------------------------------------------------|
B|---10-13-10-10-----10-13-10-10-----------------------------------|
G|-----------------------------------7-10-7-7----7-5---------------|
D|----------------------------------------------------7-10-7-7-----|
A|-----------------------------------------------------------------|
E|-----------------------------------------------------------------|
     Am              Am              Dm               Am



VERSE 2:
              Am
Beggin' you a five cent, sir

              Am
Beggin' you a ten cent, sir

       Dm               Am
Cannot help, no, cannot help

              Am                     Am
So if you all keep on doing what you all are doing

         Dm               Am 
You will end up, up up in jail

              Am                     Am
So if you all keep on doing what you all are doing

         Dm               Am 
You will end up, up up in jail



CHORUS: repeat CHORUS.



BASS HINT:
             Am
G|---------------------------|
D|---------------------------|
A|--------------7----7-5-7---|
E|---5-5--8------------------|

             Dm
G|---------------------------|
D|--------------7----7-5-7---|
A|---5-5--8------------------|
E|---------------------------|
VIDEO

Se il video non dovesse essere più disponibile scrivi a indytab@googlemail.com. Grazie!
COMMENTA QUESTA TABLATURA
Devi avere JavaScript attivato per poter commentare! (misura antispam)