IndyTab Logo

BETA VERSION - 321 TABS DISPONIBILI

Cerca una tablatura nel nostro archivio:

Gruppo Canzone


Elenco dei gruppi presenti su IndyTab
Lista di tutte le tablature di IndyTab
DISCLAIMER
Questa tablatura rappresenta l'interpretazione della canzone da parte dell'autore. Può essere usata per scopi di studio, insegnamento e ricerca.

La tab è liberamente riproducibile in forum, blog, siti web (ad eccezione degli archivi di tablature online) e stampabile. Non è obbligatorio ma molto gradito citare la fonte (cioè IndyTab), meglio con un link di rimando al nostro sito.
ACCORDATORE
Per accordare la tua chitarra puoi usare il nostro accordatore online
TAB REQUEST
Stai cercando una tablatura? Suggeriscila compilando il modulo sottostante!

Gruppo
Titolo
Tua Mail

(la tua mail verrà usata per ricontattarti quando la tablatura sarà online)
DELLO STESSO GRUPPO

Madness // One Step Beyond

Tablatura tratta dall'album: One Step Beyond...

(clicca qui per la legenda)

(clicca qui per il video)

    C#m     F#m    G#
e|---9-------9------4----|
B|---9-------10-----4----|
G|---9-------11-----5----|
D|--(11)----(11)---(6)---|
A|--(11)----(9)----(6)---|
E|--(9)------------(4)---|


--------------------------------------------------------------------------


VOICE INTRO:

Hey you, don't watch that
Watch this!
This is the heavy heavy monster sound
The nuttiest sound around
So if you've come in off the street
And you're beginning to feel the heat
Well listen buster
You better start to move your feet
To the rockinest, rock-steady beat
Of Madness
One step beyond!



GUITAR:

(All in ska rhythm)


C#m   F#m   C#m   C#m     (x3) 

G#    G#    G#   

One step beyond!

C#m   F#m   C#m   C#m       

C#m   C#m   C#m   C#m

(Sax Solo)

C#m   C#m   C#m   C#m 

G#    G#    G#    

C#m   C#m   C#m   C#m

G#    G#    G# 

One step beyond!

C#m   F#m   C#m   C#m    (x2) 

G#    G#    G#  G#

One step beyond!

C#m   F#m   C#m   C#m    (x2) 

G#    G#    G#  

One step beyond!

C#m   F#m   (x6) 

One step beyond!

C#m  [C#m] 



BASS HINT:

        C#m
G|-------------------|
D|---------6---------|
A|---4--7-----7------|
E|-------------------|

        F#m
G|----------6--------|
D|---4--7-----7------|
A|-------------------|
E|-------------------|

        G#
G|--------------------|    G|------------------|
D|--------------------|    D|---6--4-----------|
A|-----3----6----3-6--|    A|---------7--6-----|
E|--4-----------------|    E|------------------|



TRUMPET RIFF (arrangement for guitar)

e|------------------------------|
B|------------------------------|
G|------------------------------|
D|--------6------4---4----------|  (X2)
A|--4--7------------7----7---4--|
E|------------------------------|

e|------------------------------|
B|------------------------------|
G|------------------------------|
D|--------6-----4---4---4-------|
A|--4--7-----------7---7---7--4-|
E|------------------------------|

e|-------------------------------------------|
B|-----------------------------9--7p5--------|
G|------5---8---9-9-8-9-8-9-8----------8-----|
D|---6---------------------------------------|
A|-------------------------------------------|
E|-------------------------------------------|
VIDEO

Se il video non dovesse essere più disponibile scrivi a indytab@googlemail.com. Grazie!
COMMENTA QUESTA TABLATURA
Devi avere JavaScript attivato per poter commentare! (misura antispam)