IndyTab Logo

BETA VERSION - 321 TABS DISPONIBILI

Cerca una tablatura nel nostro archivio:

Gruppo Canzone


Elenco dei gruppi presenti su IndyTab
Lista di tutte le tablature di IndyTab
DISCLAIMER
Questa tablatura rappresenta l'interpretazione della canzone da parte dell'autore. Può essere usata per scopi di studio, insegnamento e ricerca.

La tab è liberamente riproducibile in forum, blog, siti web (ad eccezione degli archivi di tablature online) e stampabile. Non è obbligatorio ma molto gradito citare la fonte (cioè IndyTab), meglio con un link di rimando al nostro sito.
ACCORDATORE
Per accordare la tua chitarra puoi usare il nostro accordatore online
TAB REQUEST
Stai cercando una tablatura? Suggeriscila compilando il modulo sottostante!

Gruppo
Titolo
Tua Mail

(la tua mail verrà usata per ricontattarti quando la tablatura sarà online)
DELLO STESSO GRUPPO

Black Train Jack // Handouts

Tablatura tratta dall'album: You're Not Alone

(clicca qui per la legenda)

(clicca qui per il video)

     A    B    G     D    E    C
e|----------------------------------|
B|----------------------------------|
G|-------------------7----9---------|
D|---7----9----5-----7----9-----10--|
A|---7----9----5-----5----7-----10--|
E|---5----7----3----------------8---|


--------------------------------------------------------------------------


RIFF1:
e|--------------------------|
B|--10----------------------|
G|----------11-12---11-12---|
D|------12------------------|
A|--------------------------|
E|--------------------------|

RIFF2:
e|--------------------------|
B|--10----------10/12--10---|
G|----------11--------------|
D|------12------------------|
A|--------------------------|
E|--------------------------|

RIFF3:
e|--------------------------|
B|--10----------------------|
G|------12--11--------------|
D|--------------12--12------|
A|--------------------------|
E|--------------------------|



INTRO:
RIFF1 x5, than  RIFF3 x1
At the third RIFF 1, the second guitar play the chords  D A B G   x2



VERSE:
(in palm muted)

     D                A
I've seen you up I've seen you down

     B                  G
I've seen you half dead on the ground

     D                   A
I've seen your rise I've seen your fall

        B                G
I Guess you can say I've seen it all


RIFF4:
e|--------------------------|
B|--------------------------|
G|---7-----------------7/9--|
D|--------------------------|
A|---5-----------------5/7--|
E|--------------------------|
     D                   A
I've seen you climb I've seen you slip


e|----------------------------------|
B|----------------------------------|
G|---7-------------------/12-11-9---|
D|----------------------------------|
A|---5-------------------/10--9-7---|
E|----------------------------------|
     B                   G
I've seen you pull every last damn trick


e|--------------------------------------|
B|--------------------------------------|
G|---7------------------7/9-----9--7----|
D|---------------------------7----------|
A|---5------------------5/7-----7--5----|
E|---------------------------5----------|
     D                    A
I've seen you scrape I've seen you crawl


e|--------------------------------------|
B|--------------------------------------|
G|---7----------------------------------|
D|--------------------------------------|
A|---5----------------------------------|
E|--------------------------------------|
     B                         G
   I guess you were never that great at all



BRIDGE:

[A] XX
How quick you are to come on back

(C) [A] XX
When you got too big you left us flat

(C) [A] XX
It's sorry to watch you beg and plead

(C)       A..
Watch you crawl around on your hands and knees



RIFF:
Play RIFF1, RIFF2, RIFF1 , RIFF3.
The second guitar play the chords  D A B G  x2
 


VERSE:
(palm muted, whith RIFF 4 from the middle like before)

  D                A
I felt your love I felt your hate

  B                        G
I felt sorry for you and I stopped the pain

  D               A
I felt so close I felt so far

  B                         G
I still stayed true when we were at war

  D               A
I felt you warm I felt you cold

  B                        G
And I knew your words were growing old

  D                A
I had a friend who was always near

  B                       G
And I miss you now 'cause you're not here



BRIDGE:

[A] XX
How quick you are to come on back

(C) [A] XX
When the one you left for left you flat

(C) [A] XX
I laughed when you asked just to stay friends

(C)       A..
Why patch a wound that just won't mend



CHORUS:

D              G
I want to know how did you think

D                A
That I'd owe you one little thing

D              G
I want to know how did you think

D            A              D
That I would let you get to me



RIFF:
Play RIFF1, RIFF2, RIFF1 , RIFF3.
The second guitar play the chords  D A B G x2 in palm muted



SOLO:
(the second guitar play the chords  D A B G x2 in palm muted)
e|-------------------------------------------------------|
B|-------------------------------------------------------|
G|------77-7------77-7------7-9b-9b-9p7---7---9-7---9-7--|
D|--7h9-------7h9-------7h9-------------9----------------|
A|-------------------------------------------------------|
E|-------------------------------------------------------|

e|---------------------------------------------------------------|
B|---------------------------------------------------------------|
G|-7h9p7-7h9p7-9h11p9-9h11p9-11h12p11-11h12p11-12h14p12-12h14p12-|
D|---------------------------------------------------------------|
A|---------------------------------------------------------------|
E|---------------------------------------------------------------|

e|------------------------------------------|
B|---15p12----15p12----15p12-----15b17-15---|
G|---------14-------14-------14-------------|
D|------------------------------------------|
A|------------------------------------------|
E|------------------------------------------|



BRIDGE:

[A] XX
How quick you are to come on back

(C) [A] XX
When you got too big you left us flat

(C) [A] XX
It's sorry to watch you beg and plead

(C)       A..                               pickslide  
Watch you crawl around on your hands and knees



CHORUS: repeat CHORUS.



LAST CHORUS:

e|---------------------------------------------------|
B|---------------------------------------------------|
G|---9--------------11-13--9-----------------11-13---|
D|---------------------------------------------------|
A|---7--------------9--11--7-----------------9--11---|
E|---------------------------------------------------|
     E                     A
     I want to know        how did you think


e|------------------------------------|
B|------------------------------------|
G|---9----------11-13-14--13-----11---|
D|------------------------------------|
A|---7----------9--11-12--11-----9----|
E|------------------------------------|
     E                B
That I'd owe you      one little thing

e|----------------------------------------------|
B|----------------------------------------------|
G|---13------------14--13--11--9----------------|
D|----------------------------------------------|
A|---11------------12--11--9---7----------------|
E|----------------------------------------------|
     E                         A
     I want to know            how did you think

e|---------------------------------------|
B|---------------------------------------|
G|----9------------4--------------9------|
D|------------------------------------7--|
A|----7------------2--------------7------|
E|------------------------------------5--|
      E            B              E   A
      That I would let you get to me

e|-------------------------------|
B|-------------------------------|
G|---9-------4--------------9\---|
D|-------------------------------|
A|---7-------2--------------7\---|
E|-------------------------------|
     E       B              E..
That I would let you get to me.
VIDEO

Se il video non dovesse essere più disponibile scrivi a indytab@googlemail.com. Grazie!
COMMENTA QUESTA TABLATURA
Devi avere JavaScript attivato per poter commentare! (misura antispam)