IndyTab Logo

BETA VERSION - 321 TABS DISPONIBILI

Cerca una tablatura nel nostro archivio:

Gruppo Canzone


Elenco dei gruppi presenti su IndyTab
Lista di tutte le tablature di IndyTab
DISCLAIMER
Questa tablatura rappresenta l'interpretazione della canzone da parte dell'autore. Pu essere usata per scopi di studio, insegnamento e ricerca.

La tab liberamente riproducibile in forum, blog, siti web (ad eccezione degli archivi di tablature online) e stampabile. Non obbligatorio ma molto gradito citare la fonte (cio IndyTab), meglio con un link di rimando al nostro sito.
ACCORDATORE
Per accordare la tua chitarra puoi usare il nostro accordatore online
TAB REQUEST
Stai cercando una tablatura? Suggeriscila compilando il modulo sottostante!

Gruppo
Titolo
Tua Mail

(la tua mail verr usata per ricontattarti quando la tablatura sar online)
DELLO STESSO GRUPPO

Porno Riviste // Ti Spacca

Tablatura tratta dall'album: Fino Alla Fine

(clicca qui per la legenda)

(clicca qui per il video)

     B     G#     E     A   E(VII)   F#(IX)     F# 
e|------------------------------------------------------|
B|------------------------------------------------------|
G|---4-------------------------9-------11---------------|
D|---4-----6------2-----7------9-------11-------4-------|
A|---2-----6------2-----7------7-------9--------4-------|
E|---------4------0-----5-----------------------2-------|


--------------------------------------------------------------------------

RIFF: 

  (x10)
e|------------------------------------------------------------|
B|------------------------------------------------------------|
G|----9-8---------8-9-8---9-8---9-8-11-8----------------------|
D|--------9-8-9---------9-----9-------------------------------|
A|------------------------------------------------------------|
E|------------------------------------------------------------|

ULTIMA PARTE DEL RIFF:
e|------------------------------------------------------------|
B|------------------------------------------------------------|
G|----9-8---------8-9-8---9-8-9-9-8----9-8--9-9p8-------------|
D|--------9-8-9---------9-------------------------9-7-9-9-----|
A|------------------------------------------------------------|
E|------------------------------------------------------------|

ACCORDI SOTTO IL RIFF:
B.. A.. E.. A(p.m.) 
B(p.m.)  A(p.m.)  E(p.m.)  A(p.m.) 
B   A   E(VII)  A  

B..


STROFA 1:

Tutti pensano com' che si fa

Ma solo lei lo fa

Nel pogo saltella e poi

B(p.m.)          G#(p.m.)
Tutti sognano la vita che fa

        E(VII)(p.m.)
Ma solo lei la fa

    F#(IX)(p.m.)
Nel pogo  pi bella e



RITORNELLO (stoppare l'accordo prima di ogni B):

   B             E(VII)           B  
Ti spacca, se la spingi non si sposta

       E(VII)             B 
Se c' lei tu non hai scampo

              E(VII)        F#(IX)  
Con gli occhi bassi vattene via



STROFA 2:

B(p.m.)             G#(p.m.)
Tutti sognano un mondo che non c'
 
          E(VII)(p.m.)  F#(IX)(p.m.)
Ma se non c' dov' che vai questa notte

B(p.m.)             G#(p.m.)
Non ho dubbi quando viene con me

         E(VII)(p.m.)    F#(IX)(p.m.)  
Stavolta vuole il pogo e vuole le botte e



RITORNELLO(stoppare l'accordo prima di ogni B):

       B        E(VII)         B  
Non basta non  gomma non  plastica

           E(VII)        B  
Non c' un limite alla noia

         E(VII)             F#(IX)  
L'unico limite  quando c' lei



       B         E(VII)           B  
Ti spacca, se la spingi non si sposta

       E(VII)            B 
Se c' lei tu non hai scampo

              E(VII)        F#(IX).. 
Con gli occhi bassi vattene via



RIFF 2 (tutto in p.m.):

e|---------------------------------------------|
B|---------------------------------------------|
G|---9-8---9-8---9-8---9-8---9-8-9-8-----------|
D|-------9-----9-----9-----9-------------------|
A|---------------------------------------------|
E|---------------------------------------------|



e|---------------------------------------------|
B|---------------------------------------------|
G|---9-8---9-8---9-8---9-8---9-8-11-8----------|
D|-------9-----9-----9-----9-------------------|
A|---------------------------------------------|
E|---------------------------------------------|

ACCORDI SOTTO IL RIFF 2
[B]  [B][B] (x2)


PONTE (sempre con il RIFF 2, per non in p.m.):

B             G#  
Ti conosco lo so

E                  F#  
Ti ho visto che ballavi al "Vela"

B             G#  
Ti conosco di gi

E               F# 
Ti sento quando canti in casa


CORO (con assolo improvvisato sulla scala di B in sottofondo):

B  G#  E  F#  (x2)

B(p.m.) G#(p.m.) E(p.m.) F#(p.m.)

B(p.m.) G#(p.m.) E(p.m.) F#  



RITORNELLO:

   B             E(VII)        B  
Ti spacca, se la spingi non si sposta

        E(VII)        B 
Se c' lei tu non hai scampo

              E(VII)        F#(IX)  
Con gli occhi bassi vattene via


    B           E(VII)      B  
Non basta non  gomma non  plastica

           E(VII)      B  
Non c' un limite alla noia

        E(VII)             F#(IX)  
L'unico limite  quando c' lei

   [B][B]
Ti Spacca
VIDEO

Se il video non dovesse essere pi disponibile scrivi a indytab@googlemail.com. Grazie!
COMMENTA QUESTA TABLATURA
Devi avere JavaScript attivato per poter commentare! (misura antispam)