IndyTab Logo

BETA VERSION - 321 TABS DISPONIBILI

Cerca una tablatura nel nostro archivio:

Gruppo Canzone


Elenco dei gruppi presenti su IndyTab
Lista di tutte le tablature di IndyTab
DISCLAIMER
Questa tablatura rappresenta l'interpretazione della canzone da parte dell'autore. Può essere usata per scopi di studio, insegnamento e ricerca.

La tab è liberamente riproducibile in forum, blog, siti web (ad eccezione degli archivi di tablature online) e stampabile. Non è obbligatorio ma molto gradito citare la fonte (cioè IndyTab), meglio con un link di rimando al nostro sito.
ACCORDATORE
Per accordare la tua chitarra puoi usare il nostro accordatore online
TAB REQUEST
Stai cercando una tablatura? Suggeriscila compilando il modulo sottostante!

Gruppo
Titolo
Tua Mail

(la tua mail verrà usata per ricontattarti quando la tablatura sarà online)
DELLO STESSO GRUPPO

Persiana Jones // Sogni

Tablatura tratta dall'album: Puerto Hurraco

(clicca qui per la legenda)

(clicca qui per il video)

    E  B  A  C#  G#    E   B   A
e|------------------|--7---7---5-------|
B|------------------|--9---7---5-------|
G|--9--------6------|--9---8---6-------|
D|--9--9--7--6---6--|--9---9---7-------|
A|--7--9--7--4---6--|-(7)-(7)-(5)------|
E|-----7--5------4--|-----(7)-(5)------|
   accordi punk         accordi ska

--------------------------------------------------------------------------

RIFF1:
e|----------------------------|
B|----------------------------|
G|--9-----(11)(13)------------|
D|--9-------------------------|
A|--7-------9--11-------------|
E|----------------------------|


INTRO:
(accordi punk)
[E] [A]
[E] [A]
[E][E] [A]
[E][E] A(p.m.) B(p.m.)

E+RIFF1 A B x4



STROFA:
(accordi punk a colpi)

E[E]             B[B]
Non mi dire mai: tutto qua non va 

A[A]            B[B]
non pensare che io sia uguale a te 

E[E]                   B[B]
io non c'entro sai non chiedermi perche' 

A                        B
cerchi solo delle scuse, guarda dentro te 



STACCO:
(accordi punk)
E+RIFF1 A B x4



STROFA:
(accordi ska)

E
guardi in faccia tanta gente, 

B
ma non trovi quel che cerchi 
                                                     (accordi punk)
A                      B                           [A][A][A][A][B] [E]
pensi che restare solo sia per te piu' conveniente 

E
credi poi di esser strano 

B
chiudi gli occhi e sei distante 

A                       E
ti rifugi nel tuo mondo ti risvegli e sei impotente 




RITORNELLO:
(accordi punk)
(*=note ripetute e in palm muted)
   *        *        *          *        *          *       *      *  *
e|---------------------------------------------------------------------|
B|---------------------------------------------------------------------|
G|---------------------------------------------------------------------|
D|---------------------------------------------------------------------|
A|11-12-11-11-12-11--7---9-7----7---9-7--9---11-9---9--11-9-6------7--9|
E|-9--------9--------5----------5--------7----------7-------4------5--7|
  C#                 A                   B                  G#     A  B
  ma quel che cerchi sai trovare non potrai se resti sempre li  e sogni 

   *        *        *          *        *          *       *      *  *
e|---------------------------------------------------------------------|
B|---------------------------------------------------------------------|
G|---------------------------------------------------------------------|
D|---------------------------------------------------------------------|
A|11-12-11-11-12-11-7---9-7----7---9-7---9---11-9---9--11-9-6------7--9|
E|-9--------9-------5----------5---------7----------7-------4------5--7|
  C#                A                    B                  G#     A  B
  ma forse non lo  sai che viver non potrai se resti sempre li  e sogni 

E+RIFF1 A               B
        se resti sempre lì e sogni

E+RIFF1 A               B
        se resti sempre lì e sogni



STACCO:
(accordi ska)
E+RIFF1 A B x2



STROFA:
(accordi ska)

E
apri adesso la tua mente,

B
libera i tuoi sentimenti 

A
non lasciarti imprigionare 

B
qui non ti regalan niente 

(qui accordi ska stoppati o palm muted, suonando una corda alla volta)

E
vedi poi la vita cambia,

B
trovi nuove sensazioni 

A
mentre quelli che conosci 

B
cambian poco o quasi niente



RITORNELLO:
(accordi punk)
(*=note ripetute e in palm muted)
   *        *        *          *        *          *       *      *  *
e|---------------------------------------------------------------------|
B|---------------------------------------------------------------------|
G|---------------------------------------------------------------------|
D|---------------------------------------------------------------------|
A|11-12-11-11-12-11--7---9-7----7---9-7--9---11-9---9--11-9-6------7--9|
E|-9--------9--------5----------5--------7----------7-------4------5--7|
  C#                 A                   B                  G#     A  B
  ma quel che cerchi sai trovare non potrai se resti sempre li  e sogni 

   *        *        *          *        *          *       *      *  *
e|---------------------------------------------------------------------|
B|---------------------------------------------------------------------|
G|---------------------------------------------------------------------|
D|---------------------------------------------------------------------|
A|11-12-11-11-12-11-7---9-7----7---9-7---9---11-9---9--11-9-6------7--9|
E|-9--------9-------5----------5---------7----------7-------4------5--7|
  C#                A                    B                  G#     A  B
  ma forse non lo  sai che viver non potrai se resti sempre li  e sogni 

E+RIFF1 A               B
        se resti sempre lì e sogni

E+RIFF1 A               B
        se resti sempre lì e sogni

E+RIFF1 A               B
        se resti sempre lì e sogni

E+RIFF1 A               B
        se resti sempre lì e sogni



OUTRO:
(accordi punk)
E (A)(B) E..
VIDEO

Se il video non dovesse essere più disponibile scrivi a indytab@googlemail.com. Grazie!
COMMENTA QUESTA TABLATURA
Devi avere JavaScript attivato per poter commentare! (misura antispam)