IndyTab Logo

BETA VERSION - 321 TABS DISPONIBILI

Cerca una tablatura nel nostro archivio:

Gruppo Canzone


Elenco dei gruppi presenti su IndyTab
Lista di tutte le tablature di IndyTab
DISCLAIMER
Questa tablatura rappresenta l'interpretazione della canzone da parte dell'autore. Può essere usata per scopi di studio, insegnamento e ricerca.

La tab è liberamente riproducibile in forum, blog, siti web (ad eccezione degli archivi di tablature online) e stampabile. Non è obbligatorio ma molto gradito citare la fonte (cioè IndyTab), meglio con un link di rimando al nostro sito.
ACCORDATORE
Per accordare la tua chitarra puoi usare il nostro accordatore online
TAB REQUEST
Stai cercando una tablatura? Suggeriscila compilando il modulo sottostante!

Gruppo
Titolo
Tua Mail

(la tua mail verrà usata per ricontattarti quando la tablatura sarà online)
DELLO STESSO GRUPPO

Senza Sicura // Io Per Te

Tablatura tratta dall'album: Più Di Mille

(clicca qui per la legenda)

(clicca qui per il video)

    C   G#   D#  A#  G   F
e|----------------------------|
B|----------------------------|
G|--5--------8-----------10---|
D|--5---2----8---8---5---10---|
A|--3---2----6---8---5---8----|
E|------4--------6---3--------|


--------------------------------------------------------------------------

INTRO:

e|----------------------------------------|
B|----------------------------------------|
G|----8-10-----8-8h10-8-8h10-8-8\5--------|
D|--8--------8----------------------------|
A|----------------------------------------|
E|----------------------------------------|
   D#   A#         C      A#  G#

  <----------------------    RIFF2    ------------------------------->
e|--------------------------------------------------------------------|
B|-/8-8-8-8-8-8--/11-11-11-11-11--------------------------------------|
G|-----------------------------------------------------8-7-8-7-8-7----|
D|-------------------------------/10-10-10-10-10-10----------------10-|
A|--------------------------------------------------------------------|
E|--------------------------------------------------------------------|
   G

e|-----------------------------------------------------------------------|
B|-----------------------------------------------------------------------|
G|-------7-8-7------------8----8-----8-10-10/12---12--12-10-12-12-12-----|
D|----10-------10-8-6-------10---10-----------------------------------10-|
A|-10-----------------8--------------------------------------------------|
E|-----------------------------------------------------------------------|
   C                  G#                     D#          G            C 

                          <--------  RIFF1  ------->             
e|---------------------------------------------------|
B|---------------------------------------------------|
G|-12-10--12-12-12---------12----12----12----12------|
D|-----------------10---------10----10----10----10---|
A|---------------------------------------------------|
E|---------------------------------------------------|
      F            C       D#          F

e|--------------------------------------------------------|
B|-/8-8-8-8-8-8--/11-11-11-11-11--------------------------|
G|-----------------------------------------------------7--|
D|-------------------------------/10-10-10-10-10-10-------|
A|--------------------------------------------------------|
E|--------------------------------------------------------|
    G                                                 [G]



STROFA 1:

C                      G#                  D#     G            C
Cammino e non mi sento diverso dalla gente che scivola via con me

  F          C         D#+RIFF1   F           G+RIFF2
Eppure sento che mille occhi sono fermi su di me

C                   G#                D#     G                  C
Cos'è questo rumore, rumore di catene che la gente ha attorno a sè

  F          C      D#+RIFF1  F                 G    
Eppure sento le, le loro mani strette attorno a me

  <----------------------    RIFF3    ------------------------------->
e|---------------------------------------------------------------------|
B|-/8-8-8-8-8-8--/11-11-11-11-11---------------------------------------|
G|----------------------------------------------------8-7--8-7-8-7--8~-|
D|-------------------------------/10-10-10-10-10-10--------------------|
A|---------------------------------------------------------------------|
E|---------------------------------------------------------------------|
    G

RITORNELLO:

D#       A#                C      A#    G#
"Non chiamarmi", dici, "io non ti chiamerò.

D#     A#        C       A#  G#
Non aiutarmi, io non ti aiuterò.

D#     A#        C      A#   G#
Non parlarmi, io non ti parlerò

D#     A#        C      A#    G#    RIFF2
Non cercarmi, io non ti cercherò."



STROFA 2:

C                       G#                           D#   G         C
C'è chi non vuole nulla che non sia quello che sente e allora sento che

   F           C        D#+RIFF1       F           G+RIF22
la libertà non è più un sogno che ha bisogno di unità

C                     G#                             D#     G          C
E corro tra i bisogni che la gente stringe attorno a sè e allora sento che

   F           C     D#+RIFF1     F         G+RIFF3
Nessuno sa com'è, nessuno sa cos'è la libertà



RITORNELLO:
                                        [D#][D#]
Io per te sono solo il mio sogno che va
  
e|-----------------------------------------------------|
B|---------------------------------------------9b11----|
G|---------------------------------------------9b11----|
D|-----------------------------------------------------|
A|-----------------------------------------------------|
E|-----------------------------------------------------|
                                                   [D#][D#]
   Solo un respiro senza nome, senza identità

e|-----------------------------------------------------|
B|--------9-------9-----------9---------9------9b11----|
G|-----7--9-----7-9--------7--9-------7-9------9b11----|
D|-7-9------7-9-------7--9-------7--9------------------|
A|-----------------------------------------------------|
E|-----------------------------------------------------|
                                                    [D#][D#] 
   Io per te sono solo il mio sogno che va

e|-----------------------------------------------------|
B|-----------9-----------9-----------------------------|
G|--------7--9---------7-9-----------------------------|
D|---7--9---------7--9---------------------------------|
A|-----------------------------------------------------|
E|-----------------------------------------------------|
                         C        A#       G#
   Solo un respiro senza nome, senza identità

D#       A#                C      A#    G#
"Non chiamarmi", dici, "io non ti chiamerò.

D#     A#        C       A#  G#
Non aiutarmi, io non ti aiuterò.

D#     A#        C      A#   G#
Non parlarmi, io non ti parlerò

D#     A#        C      A#    G#   G..
Non cercarmi, io non ti cercherò."
VIDEO

Se il video non dovesse essere più disponibile scrivi a indytab@googlemail.com. Grazie!
COMMENTA QUESTA TABLATURA
Devi avere JavaScript attivato per poter commentare! (misura antispam)