IndyTab Logo

BETA VERSION - 321 TABS DISPONIBILI

Cerca una tablatura nel nostro archivio:

Gruppo Canzone


Elenco dei gruppi presenti su IndyTab
Lista di tutte le tablature di IndyTab
DISCLAIMER
Questa tablatura rappresenta l'interpretazione della canzone da parte dell'autore. Può essere usata per scopi di studio, insegnamento e ricerca.

La tab è liberamente riproducibile in forum, blog, siti web (ad eccezione degli archivi di tablature online) e stampabile. Non è obbligatorio ma molto gradito citare la fonte (cioè IndyTab), meglio con un link di rimando al nostro sito.
ACCORDATORE
Per accordare la tua chitarra puoi usare il nostro accordatore online
TAB REQUEST
Stai cercando una tablatura? Suggeriscila compilando il modulo sottostante!

Gruppo
Titolo
Tua Mail

(la tua mail verrà usata per ricontattarti quando la tablatura sarà online)
DELLO STESSO GRUPPO

NOFX // Linoleum

Tablatura tratta dall'album: Punk In Drublic

(clicca qui per la legenda)

(clicca qui per il video)

    E   E*  E(0)  G#   C#   B    B*   A
e|----------------------------------------|
B|----------------------------------------|
G|--9---9--------------6------------------|
D|--9---6----2----6----6----9----9----7---|
A|--7---7----2----6----4----9----6----7---|
E|-----------0----4---------7----7----5---|


--------------------------------------------------------------------------



INTRO:

E

E + E(0)(p.m.)    pickslide


(repeat the note many times)
e|------------------------------------------|
B|------------------------------------------|
G|---13------5--------9----------8---[9]----|
D|------------------------------------------|
A|---11------3--------7----------6---[7]----|
E|------------------------------------------|
     E*      G#       C#  B   A  B   E



VERSE:

   E*                              G#    
Possesions never meant anything to me, I'm not crazy

C#              B                A        B
Well that's not true, I've got a bed, and a guitar

      E*                             G#  
And a dog named dog who pisses on my floor

                         C#        B        A        B
That's right, I've got a floor, so what, so what, so what?

     E*                  B*  
I've got pockets full of kleenex and lint and holes

      C#                      A
Where everything important to me

                                 E*                G#
Just seems to fall right down my leg and on to the floor

C#         B            A      B  E* B*
My closest friend linoleum, linoleum supports my head, 

C#                      A 
gives me something to believe

       E*(p.m.)                        B*(p.m.)
That's me on the beachside combing the sand

                  C#(p.m.)                       A 
Metal meter in my hand sporting a pocket full of change

       E*                                      B*
That's me on the street with a violin under my chin

               C#                 A 
Playing with a grin, singing gibberish

       E*                    B*
That's me on the back of the bus

                 C#                          A
That's me in the cell, that's me inside your head

                      E*  B*  C#   A
That's me inside your heeeeeeeeeeeeeeead

           pickslide  (outro)
That's me inside your head



OUTRO:

(repeat the note many times)
e|------------------------------------------|
B|------------------------------------------|
G|---13------5--------9----------8---[9]----|
D|------------------------------------------|
A|---11------3--------7----------6---[7]----|
E|------------------------------------------|
     E*      G#       C#  B   A  B   E     [E(0)] [E(0)] [E(0)]
VIDEO

Se il video non dovesse essere più disponibile scrivi a indytab@googlemail.com. Grazie!
COMMENTA QUESTA TABLATURA
Devi avere JavaScript attivato per poter commentare! (misura antispam)