IndyTab Logo

BETA VERSION - 321 TABS DISPONIBILI

Cerca una tablatura nel nostro archivio:

Gruppo Canzone


Elenco dei gruppi presenti su IndyTab
Lista di tutte le tablature di IndyTab
DISCLAIMER
Questa tablatura rappresenta l'interpretazione della canzone da parte dell'autore. Può essere usata per scopi di studio, insegnamento e ricerca.

La tab è liberamente riproducibile in forum, blog, siti web (ad eccezione degli archivi di tablature online) e stampabile. Non è obbligatorio ma molto gradito citare la fonte (cioè IndyTab), meglio con un link di rimando al nostro sito.
ACCORDATORE
Per accordare la tua chitarra puoi usare il nostro accordatore online
TAB REQUEST
Stai cercando una tablatura? Suggeriscila compilando il modulo sottostante!

Gruppo
Titolo
Tua Mail

(la tua mail verrà usata per ricontattarti quando la tablatura sarà online)
DELLO STESSO GRUPPO

NOFX // Bob

Tablatura tratta dall'album: White Trash, Two Heebs And A Bean

(clicca qui per la legenda)

(clicca qui per il video)

    C   F   E(VII)  E   F(VIII)  A#  G        C   G   Am   F
e|-----------------------------------------|--0---2---0----1---|
B|-----------------------------------------|--1---2---1----1---|
G|--5--------9------------10-----3---------|--0---0---2----2---|
D|--5---3----9------2-----10-----3---5-----|--2---0---2----3---|
A|--3---3----7------2-----8------1---5-----|-------------------|
E|------1-----------0----------------3-----|-------------------|
              POWER CHORDS                     SKA CHORDS

--------------------------------------------------------------------------


VERSE 1:

         C(p.m.)
He spent fifteen years getting loaded

F(p.m.)
Fifteen years 'till his liver exploded

           C(p.m.)                        F(p.m.) 
Now what's Bob gonna do now that he can't drink?

                C..
The doctor said, "What you been thinkin' 'bout?"

    F..
Bob said, "That's the point,

                    C.. 
I won't think about nothing

                         F..
Now I gotta do something else,"   OI OI OI!



VERSE 2:

   C
To pass the time had someone shave his head

         F
He got a new identity

C
Sixty-two holed air cushioned boots

      F 
And a girl who rides a scooter

               C(ska)  G(ska)
Gonna take him out, of town

Am(ska)        F(ska)
They would get away

C(ska)  G(ska)        Am(ska)   
Riding around, as the trucks drive by

          F(ska)
You could here the mother fuckers go...



TRUMPET SOLO:
(ska: C  G  Am  F  x4)

e|------5-5------------------------------------|
B|----8-----8-5----5-----------------8--6-5----|
G|---------------7---7-5------5-4-5------------|
D|---------------------------------------------|
A|---------------------------------------------|
E|---------------------------------------------|

e|---------------------------------------------|
B|--8-6-5---8--6-5---8-6-5---8--6-5------------|
G|---------------------------------------------|
D|---------------------------------------------|
A|---------------------------------------------|
E|---------------------------------------------|

e|--------------------10-10h12-12-10-----------------------|
B|--13-12-13-13-12-13----------------13-12-13-13-12-10-----|
G|-----------------------------------------------------12--|
D|---------------------------------------------------------|
A|---------------------------------------------------------|
E|---------------------------------------------------------|

e|--12-10------12-10-------12-10---------------------------|
B|--------13---------13----------13-13-12-13-13-12-10------|
G|----------------------------------------------------12---|
D|---------------------------------------------------------|
A|---------------------------------------------------------|
E|---------------------------------------------------------|



VERSE 3:

  C..
A couple of lines, an extra thermos of Joe

         F..
He'll be kickin' in heads at the punk rock show, yeah

C..
Bob's the kinda guy who knows just what

E(VII)+E                                   F(VIII)+F.. 
Bob's the kinda guy who knows just what to do

                          C
When the doctor tells him to



CHORUS:

           A#                  F
"Quit your drinkin', now's the time."

        G             C
Will he ever walk the line

          A#                   F
To all my friends, I feel just great

            G             C
But will he ever walk the line

A#              F              G
Kickin' ass and bustin' heads, red suspenders

C      A#                F
Once a day he shaves his head
 
            G             C+RIFF 
But will he ever walk the line?

        A#            F
Will he ever walk the line?

        G             C+RIFF 
Will he ever walk the line?

        A#            F
Will he ever walk the line?

           G             [C]
Oh will he ever walk the line?


RIFF:
(play many times every note)
e|--------------------------|
B|--------------------------|
G|--12---10--(9)-5---7------|
D|--------------------------|
A|--10---8---(7)-3---5------|
E|--------------------------|



OUTRO:
(ska)

C  G  Am  F  x2
[C] 
VIDEO

Se il video non dovesse essere più disponibile scrivi a indytab@googlemail.com. Grazie!
COMMENTA QUESTA TABLATURA
Devi avere JavaScript attivato per poter commentare! (misura antispam)