IndyTab Logo

BETA VERSION - 321 TABS DISPONIBILI

Cerca una tablatura nel nostro archivio:

Gruppo Canzone


Elenco dei gruppi presenti su IndyTab
Lista di tutte le tablature di IndyTab
DISCLAIMER
Questa tablatura rappresenta l'interpretazione della canzone da parte dell'autore. Può essere usata per scopi di studio, insegnamento e ricerca.

La tab è liberamente riproducibile in forum, blog, siti web (ad eccezione degli archivi di tablature online) e stampabile. Non è obbligatorio ma molto gradito citare la fonte (cioè IndyTab), meglio con un link di rimando al nostro sito.
ACCORDATORE
Per accordare la tua chitarra puoi usare il nostro accordatore online
TAB REQUEST
Stai cercando una tablatura? Suggeriscila compilando il modulo sottostante!

Gruppo
Titolo
Tua Mail

(la tua mail verrà usata per ricontattarti quando la tablatura sarà online)
DELLO STESSO GRUPPO

Blink-182 // Dammit

Tablatura tratta dall'album: Dude Ranch

(clicca qui per la legenda)

(clicca qui per il video)

    C  G  A  F  C*
e|------------------|
B|------------------|
G|--5-----------5---|
D|--5--5--7--3------|
A|--3--5--7--3--3---|
E|-----3--5--1------|


--------------------------------------------------------------------------


RIFF:
e|--------------------------------------------------|
B|--------------------------------------------------|
G|--------------------------------------------------|
D|------0-0-2------0-0-2-------0-0-2-------2-2-0----|
A|--3-3--------------------0-0----------------------|
E|-------------3-3---------------------1-1----------|
    C          G           A           F


INTRO:
RIFF x2 solo
RIFF x2 with guitar C G A F


VERSE 1:
(palm muted)

C..          G          A              F
It's alright to tell me what you think about me 

C           G        A          F
I won't try to argue or hold it against you 

(open)

C           G              A             F
I know that you're leaving you must have your reasons 

C             G       A             F
The season is calling your pictures are falling down 



RIFF (X2):

e|--------------------------------------------------|
B|--------------------------------------------------|
G|--------------------------------------------------|
D|------0-0-2------0-0-2-------0-0-2-------2-2-0----|
A|--3-3--------------------0-0----------------------|
E|-------------3-3---------------------1-1----------|
    C          G           A           F



VERSE 2:
(palm muted)

C              G          A            F
The steps that I retrace, the sad look on your face 

C          G              A            F
The timing and structure, did you hear he fucked her 

(open)

C          G             A           F
A day late a buck short, I'm writing the report 

C         G            A           F
On losing and failing, when I move I'm flailing now



CHORUS:

C+C*                   G+C*                  A+C*
And it's happened once again, I'll turn to a friend,  

                   F                              C+C*
Someone that understands, Sees through the master plan  

                G+C*                             A+C*
But everybody's gone, and I've been here for too long  

                   F                                 RIFF
To face this on my own, well I guess this is growing up

                             RIFF
Well I guess this is growing up 



VERSE 3:
(palm muted)

C..       G             A          F
And maybe I'll see you, at a movie sneak preview 

C              G           A          F
you'll show up and walk by on the arm of that guy

(open)

C              G                A             F
And I'll smile and you'll wave, We'll pretend it's okay 

C           G             A              F
The charade it won't last when he's gone I won't come back 



CHORUS:

C+C*                   G+C*                  A+C*
And it's happened once again, I'll turn to a friend,  

                   F                              C+C*
Someone that understands, Sees through the master plan  

                G+C*                             A+C*
But everybody's gone, and I've been here for too long  

                   F                                 
To face this on my own, well I guess this is growing up



BRIDGE & OUTRO:
e|--------0---------------0-----0----|
B|------3-------5-------3-----3------|
G|--5~------5-----5---------5-----5--|
D|------------------5----------------|
A|--3~-------------------------------|
E|-----------------------------------|
        G..     C..     F..

e|-------------0---------------0-----0----|
B|--5--------3-------5-------3-----3------|
G|----5----------5-----5---------5-----5--|
D|------5----------------5----------------|
A|----------------------------------------|
E|----------------------------------------|
    C..      G..     C..     F..                          RIFF
                             Well I guess this is growing up

                             RIFF
Well I guess this is growing up

                             RIFF
Well I guess this is growing up

                             RIFF
Well I guess this is growing up

                             C..
Well I guess this is growing up

(during the OUTRO there's also this other little RIFF)
e|-15-15-15-15-13-12-13-12------------|
B|-------------------------13~--------|
G|------------------------------------|
D|------------------------------------|
A|------------------------------------|
E|------------------------------------|
VIDEO

Se il video non dovesse essere più disponibile scrivi a indytab@googlemail.com. Grazie!
COMMENTA QUESTA TABLATURA
Devi avere JavaScript attivato per poter commentare! (misura antispam)