IndyTab Logo

BETA VERSION - 321 TABS DISPONIBILI

Cerca una tablatura nel nostro archivio:

Gruppo Canzone


Elenco dei gruppi presenti su IndyTab
Lista di tutte le tablature di IndyTab
DISCLAIMER
Questa tablatura rappresenta l'interpretazione della canzone da parte dell'autore. Può essere usata per scopi di studio, insegnamento e ricerca.

La tab è liberamente riproducibile in forum, blog, siti web (ad eccezione degli archivi di tablature online) e stampabile. Non è obbligatorio ma molto gradito citare la fonte (cioè IndyTab), meglio con un link di rimando al nostro sito.
ACCORDATORE
Per accordare la tua chitarra puoi usare il nostro accordatore online
TAB REQUEST
Stai cercando una tablatura? Suggeriscila compilando il modulo sottostante!

Gruppo
Titolo
Tua Mail

(la tua mail verrà usata per ricontattarti quando la tablatura sarà online)
DELLO STESSO GRUPPO

Pensione Libano // Costume Rosa

Tablatura tratta dall'album: Costume Rosa

(clicca qui per la legenda)

(clicca qui per il video)

    D  B  G  A
e|---------------|
B|---------------|
G|--7------------|
D|--7--9--5--7---|
A|--5--9--5--7---|
E|-----7--3--5---|


--------------------------------------------------------------------------
tab by www.IndyTab.com
--------------------------------------------------------------------------

INTRO:
e|----------------------------------|
B|------7-8-7---7-8-7------7--------|
G|----------------------------------|
D|----------------------------------|
A|----------------------------------|
E|----------------------------------|
    D       B       G      A..

STROFA:

[D]            [A]
Camminavo solo sotto casa mia

[B]                    [G]
mi trovavo solo senza compagnia

D                            A
Stare insieme a voi è sempre stato un po' più bello

B                               G      A
si festeggia sempre e adesso un bel vinello

D                      A
poi tutti quanti tutti insieme andiamo al ponte

B                       G       A
ci sediamo tutti con il sole in fronte

D                        A
Poi parte fufetto con un tuffo perfetto

B                       G    A
noi lo seguiamo tutti giù di petto

D                            A
quando c'è l'azzurro e le montagne è troppo bello

[B]
sembra proprio di essere nel mio castello



RITORNELLO/CORO:
(ripetere le ottave più volte)
e|------------------------|
B|------------------------|
G|---7----11---7----9-----|
D|------------------------|x3
A|---5----9----5----7-----|
E|------------------------|
     D    B    G    A


STROFA:

[D]                 [B]
come per magia mi ritrovo in compagnia

[G]                           [A]
forse è meglio adesso che non vado via

D                          A
con la radio a palla siamo lì seduti al ponte

B                      G    A
c'è la polizia che ci manda via

D                         A
io da questo posto non mi muovo e non mi sposto

B                         G    A
neanche se venisse lo sceriffo Rosco

D                       A 
guardo due sfigati e li vedo giù da basso

B                             G       A
chiamo Balo e il Jack poi gli tiro un sasso

D                          A
guardo l'orizzonte e mi accorgo di una cosa

[B]
qui c'è solo rambo col costume rosa



RITORNELLO/CORO:
Ripetere il ritornello.



PONTE:
(palm muted)
D B G A x2



OUTRO:
(accordi normali)
e|-------------------------------------------|
B|----7--8-7----7-8-7-----7--8-7----7-10-7---|
G|--7--------77---------7--------77----------|x3
D|-------------------------------------------|
A|-------------------------------------------|  
E|-------------------------------------------|
    D         B         G         A

(accordi a colpi)
e|-----------------------------------------------|
B|----7--8-7----7-8-7-----7--8-7----7-10-8p7-----|
G|--7--------77---------7--------77----------7---|
D|-----------------------------------------------|
A|-----------------------------------------------|  
E|-----------------------------------------------|
    D         B         G         A          D..  [D]

--------------------------------------------------------------------------
tab by www.IndyTab.com
--------------------------------------------------------------------------
VIDEO

Se il video non dovesse essere più disponibile scrivi a indytab@googlemail.com. Grazie!
COMMENTA QUESTA TABLATURA
Devi avere JavaScript attivato per poter commentare! (misura antispam)