IndyTab Logo

BETA VERSION - 321 TABS DISPONIBILI

Cerca una tablatura nel nostro archivio:

Gruppo Canzone


Elenco dei gruppi presenti su IndyTab
Lista di tutte le tablature di IndyTab
DISCLAIMER
Questa tablatura rappresenta l'interpretazione della canzone da parte dell'autore. Può essere usata per scopi di studio, insegnamento e ricerca.

La tab è liberamente riproducibile in forum, blog, siti web (ad eccezione degli archivi di tablature online) e stampabile. Non è obbligatorio ma molto gradito citare la fonte (cioè IndyTab), meglio con un link di rimando al nostro sito.
ACCORDATORE
Per accordare la tua chitarra puoi usare il nostro accordatore online
TAB REQUEST
Stai cercando una tablatura? Suggeriscila compilando il modulo sottostante!

Gruppo
Titolo
Tua Mail

(la tua mail verrà usata per ricontattarti quando la tablatura sarà online)
DELLO STESSO GRUPPO

Latte+ // Ragazzo Sfigato

Tablatura tratta dall'album: Guerriglia Urbana

(clicca qui per la legenda)

     A  F#(II)  D  E  F#
e|--------------------------|
B|--------------------------|
G|--------------7--9--11----|
D|---7----4-----7--9--11----|
A|---7----4-----5--7--9-----|
E|---5----2-----------------|


--------------------------------------------------------------------------


RIFF:
e|---------------------------------------------------------|
B|---------------------------------------------------------|
G|---6----6---6---7-6---------6----6---6---7-6-------------|
D|-----7----7---7-----7-9---7---7----7---7-----7-9---7-----|
A|---------------------------------------------------------|
E|---------------------------------------------------------|
     A            E           F#           D



INTRO:
Ripetere il RIFF da solo una volta, poi due volte col basso.
Poi altre quattro volte con la chitarra ad accordi pieni.



STROFA:
(accordi puliti, la chitarra distorta fa un A.. + RIFF in dissolvenza)
A D E D x2

A     D              E           D          A
Perdi ciò che ti resta di quella poca dignità

            D          E              D           (A)
Sei uno sfigato e non hai che da scappare via di qua!

(accordi distorti)

A         D               E             D               A
  Da solo vai per la tua via quello che cerchi è la follia

              D         F#
Non vuoi una vita come noi?

        E     D   (A)
Lavoro noia ipocrisia!



RITORNELLO:
(ripetere due volte)

A
Na na na na na

E
Na na na na na

F#
Na na na na na

D
Na na na na na



STACCO:
Ripetere il RIFF due volte. 



STROFA:
(palm muted)

A        D                 E            D             A
Sai bene che con quel che fai uguale a noi non sarai mai

          D        E              D            A..
Fuggi dalla monotonia di una realtà piena di guai!

(accordi puliti)

A         D               E             D               A
  Da solo vai per la tua via quello che cerchi è la follia

              D         F#(II)
Non vuoi una vita come noi?

        E           D...
Lavoro noia ipocrisia...


Ragazzo sfigato!



RITORNELLO:
Ripetere il ritornello quattro volte, nelle seconde due suonare
anche il RIFF.



OUTRO:
(suonare più volte le note segnate con *)
   *            *           *            *
e|-------------------------------------------------|
B|-10---------9-10--------9-10---------9-10--------|
G|-------------------------------------------------|
D|-7----------6-7---------6-7----------6-7---------|
A|-------------------------------------------------|
E|-------------------------------------------------|
   A            E           F#           D

      *            *           *
e|----------------------------------------------------|
B|-12-10---------9-10--------9-10--------12-10~~~-----|
G|----------------------------------------------------|
D|-9--7----------6-7---------6-7---------9--7~~~------|
A|----------------------------------------------------|
E|----------------------------------------------------|
      A            E           F#           D..
COMMENTA QUESTA TABLATURA
Devi avere JavaScript attivato per poter commentare! (misura antispam)