IndyTab Logo

BETA VERSION - 321 TABS DISPONIBILI

Cerca una tablatura nel nostro archivio:

Gruppo Canzone


Elenco dei gruppi presenti su IndyTab
Lista di tutte le tablature di IndyTab
DISCLAIMER
Questa tablatura rappresenta l'interpretazione della canzone da parte dell'autore. Può essere usata per scopi di studio, insegnamento e ricerca.

La tab è liberamente riproducibile in forum, blog, siti web (ad eccezione degli archivi di tablature online) e stampabile. Non è obbligatorio ma molto gradito citare la fonte (cioè IndyTab), meglio con un link di rimando al nostro sito.
ACCORDATORE
Per accordare la tua chitarra puoi usare il nostro accordatore online
TAB REQUEST
Stai cercando una tablatura? Suggeriscila compilando il modulo sottostante!

Gruppo
Titolo
Tua Mail

(la tua mail verrà usata per ricontattarti quando la tablatura sarà online)
DELLO STESSO GRUPPO

Los Fastidios // Cuba Libre

Tablatura tratta dall'album: Guardo Avanti

(clicca qui per la legenda)

(clicca qui per il video)

    C  D  F  G  A  F(VIII) G(X)
e|-----------------------------------|
B|-----------------------------------|
G|--5--7------------10-----12--------|
D|--5--7--3--5--7---10-----12--------|
A|--3--5--3--5--7---8------10--------|
E|--------1--3--5--------------------|


--------------------------------------------------------------------------


INTRO:
C D F G
C D F(p.m.) G(p.m)



STROFA:

C                D
Hanno isolato un'isola ribelle

F                   G
un vile embargo firmato strisce e stelle

C                   D
Sogno di lotta dei popoli del mondo

F             G
incubo reale del capitalismo

C                 D
Hanno cercato la sua gente di abbagliare

F                   G
con falsa libertà e ricchezza materiale

C              D
Non pensavano certo di fallire

F(VIII)             G(X)
e Hasta la victoria di sentirsi dire



RITORNELLO:

F           G       C
Del sogno americano ne puoi fare a meno

A                         F                 G                   C D F G
Guarda chi da anni lotta contro stelle e strisce e da sempre resiste...

      C D F(p.m.) G(p.m)
Cuba libre



STROFA:

C                   D
Nessun bisogno del loro consumismo

F                 G
multinazionali e neoliberismo

C                D
Cuba lo dimostra nada es perdido

F                G
El pueblo unido jamas sera vencido!



RITORNELLO:
Ripetere il ritornello.



SOLO:
e|----------------------------------------------------------|
B|-----------------------------5-6-5------6-5----------5----|
G|-5~--4-5~--7-5~--5-4-7-4-5---------7-5------7-5--4-7---5~-|
D|----------------------------------------------------------|
A|----------------------------------------------------------|
E|----------------------------------------------------------|
   C     D     F     G     C     D        F        G

(il SOLO qui prosegue sotto alla strofa successiva)
e|----------------------------------------------------|
B|-----------------------------------5-6~--5-----5----|
G|-5~--4-5~--4-5~--4-5~--4-5~--4-5~----------7~----5~-|
D|----------------------------------------------------|
A|----------------------------------------------------|
E|----------------------------------------------------|



STROFA:

C                     D
Hanno cercato la sua gente di abbagliare

     F                   G
con falsa libertà e ricchezza materiale

C              D
Non pensavano certo di fallire

   F                G
e Hasta la victoria di sentirsi dire



RITORNELLO:
Ripetere il ritornello.



STACCO:

     C      D      F           G
El pueblo unido jamas sera vencido!

     C      D      F           G
El pueblo unido jamas sera vencido!

     C..    D..    F..         G..
El pueblo unido jamas sera vencido!

    [C]    [D]     F(p.m.)     G(p.m.)
El pueblo unido jamas sera vencido!



ULTIMO RITORNELLO:

F           G       C(p.m.)
Del sogno americano ne puoi fare a meno

A(p.m.)                   F                 G                   C D F G
Guarda chi da anni lotta contro stelle e strisce e da sempre resiste...

      C D F G
Cuba libre

      C D F G
Cuba libre

      C D F G
Cuba libre

      C..
Cuba libre
VIDEO

Se il video non dovesse essere più disponibile scrivi a indytab@googlemail.com. Grazie!
COMMENTA QUESTA TABLATURA
Devi avere JavaScript attivato per poter commentare! (misura antispam)