IndyTab Logo

BETA VERSION - 321 TABS DISPONIBILI

Cerca una tablatura nel nostro archivio:

Gruppo Canzone


Elenco dei gruppi presenti su IndyTab
Lista di tutte le tablature di IndyTab
DISCLAIMER
Questa tablatura rappresenta l'interpretazione della canzone da parte dell'autore. Può essere usata per scopi di studio, insegnamento e ricerca.

La tab è liberamente riproducibile in forum, blog, siti web (ad eccezione degli archivi di tablature online) e stampabile. Non è obbligatorio ma molto gradito citare la fonte (cioè IndyTab), meglio con un link di rimando al nostro sito.
ACCORDATORE
Per accordare la tua chitarra puoi usare il nostro accordatore online
TAB REQUEST
Stai cercando una tablatura? Suggeriscila compilando il modulo sottostante!

Gruppo
Titolo
Tua Mail

(la tua mail verrà usata per ricontattarti quando la tablatura sarà online)

Pitura Freska // Picinin

Tablatura tratta dall'album: Duri I Banchi

(clicca qui per la legenda)

(clicca qui per il video)

     F    C    A#   F(VIII)  C(VIII)  A#(VI)
e|---1----3----1------8--------8--------6----|
B|---1----5----3------10-------8--------6----|
G|---2----5----3------10-------9--------7----|
D|--(3)--(5)--(3)----(10)-----(10)-----(8)---|
A|--(3)--(3)--(1)----(8)------(10)-----(8)---|
E|--(1)-----------------------(8)------(6)---|


--------------------------------------------------------------------------

NOTA:
Per gli accordi segnati con *, una seconda chitarra fa pennate singole di
accompagnamento sull'accordo acuto corrispondente F(VIII), C(VIII) o 
A#(VI).



GIRO DI BASSO A VOCE:
e|-------------------------------------------------|
B|-------------------------------------------------|
G|-------------------------------------------------|
D|---2----------------------------------2----------|
A|---------4-2-2--2-4-2-4-2----------4-----4-------|  x2
E|-----0-4---------------------2--5-----------5----|


INTRO DI BASSO:
e|-------------------------------------------------|
B|-------------------------------------------------|
G|-------------------------------------------------|
D|---3----------------------------------3----------|
A|---------5-3-3---3-5-3-5-3---------5-----5-------|  
E|-----1-5---------------------3--6-----------6----|

e|-------------------------------------------------|
B|-------------------------------------------------|
G|-------------------------------------------------|
D|--------------------------------------3----------|
A|---------5-3-3---3-5-3-5-3---------5------3------|  
E|---1-1-5---------------------3--6----------------|



INTRO ACCOMPAGNAMENTO CHITARRA:
(ad ogni inizio di giro, una chitarra suona RIFF1)

F C A# C   X4


RIFF1:
e|----------|
B|----------|
G|----------|
D|----------| p.m suonata 9 volte
A|---8------|
E|----------| 



STROFA 1:
(la chitarra suona solo il RIFF1, 
 il giro di basso segue gli accordi F C A# C)

RIFF1              RIFF1
Se colpa de so mama che se na bea dona

RIFF1           RIFF1 
so pare anca lu col ghe la vede al dise bona

RIFF1             RIFF1  
dopo na bea serata dopo anca i biciarini

RIFF1              RIFF1
e una e do e tre', po' vien vanti i fantuini



RITORNELLO:

  F+RIFF1         C
picinin, vogio tornar picinin

  A#              C
picinin, vogio tornar picinin

  F+RIFF1         C
picinin, vogio tornar picinin

  A#              C
picinin, vogio tornar picinin



STROFA 2:

F*+RIFF1 C            A#*  C        
         de dormir in pase

F*+RIFF1 C             A#* C*  
         desso ti ga finio

F*+RIFF1 C               A#*  C     
         tuta la note in pie 

F*+RIFF1 C               A#*  C*  
  a sentir che pianse el fio

F*+RIFF1 C               A#*  C  
         ogni ocasion se bona 

F*+RIFF1 C         A#*  C  
         par far casin

F*+RIFF1 C               A#*  C  
         e se el fio se lagna 

F*+RIFF1 C            A#*  C  
  no te digo el me vissin...



RITORNELLO:

  F(VIII)         A#(VI)
picinin, vogio tornar picinin

  F(VIII)         A#(VI)
picinin, vogio tornar picinin

  F(VIII)         A#(VI)
picinin, vogio tornar picinin

  F(VIII)         A#(VI)
picinin, vogio tornar picinin



PONTE:

       F+RIFF1            C
che co gero picinin no vardavo el taquin

    A#                    C  
coi tempi che coreva gero neto de bain

           F+RIFF1              C
perche' co sincue franchi me compravo le figurine

   A#                     C  
co diese franchi l'intero album de stampine

   F+RIFF1            C
co vinti franchi ma magnavo un stic

   A#                   C  
co trenta franchi me compravo na Bic

   F+RIFF1          C
co mie franchi, che gera un tesoro,

   A#                  C  
compravo tre' grami de libano oro...



RITORNELLO:

  F*+RIFF1        C
picinin, vogio tornar picinin

  A#*             C
picinin, vogio tornar picinin

  F*+RIFF1        C
picinin, vogio tornar picinin

  A#*             C
picinin, vogio tornar picinin



STACCO:

F*+RIFF1  C  A#*  C  X4



STROFA 3:

F*+RIFF1 C            A#* C
       e spachite i buei 

F*+RIFF1 C            A#* C
     par meter via i schei

F*+RIFF1 C         A#*  C
     se  cari i giogatoi

F*+RIFF1 C          A#* C
 no te   conto i spinei

   [F]                    [C]     
e adesso che son grande mi toca lavorare

[A#]                      [C]
tute le matine alzarsi e andare a faticare

    F+RIFF1       C     
con un milione me pago l'afito

    A#            C
con do milioni me pago il vito

    F+RIFF1         C     
con tre' milioni mi compro il cellulare

    A#                   C
con cuatro milioni, le bolete da pagare

   F+RIFF1                 C   
co vinti milioni che se un ano de lavoro

    A#                   C
ghe pago la vacanse al Ministro del Tesoro.



RITORNELLO:

  F*+RIFF1        C
picinin, vogio tornar picinin

  A#*             C
picinin, vogio tornar picinin

  F*+RIFF1        C
picinin, vogio tornar picinin

  A#*             C
picinin, vogio tornar picinin


  F(VIII)*        A#(VI)*
picinin, vogio tornar picinin

  F(VIII)*        A#(VI)*
picinin, vogio tornar picinin

  F(VIII)*        A#(VI)*
picinin, vogio tornar picinin

  F(VIII)*        A#(VI)
picinin, vogio tornar picinin



OUTRO BASSO:
e|----------------------------------------------------|
B|----------------------------------------------------|
G|----------------------------------------------------|
D|---3----------------------------------3------3-3-3--|
A|---------5-3-3---3-5-3-5-3---------5-----5----------|  
E|-----1-5---------------------3--6-------------------|
VIDEO

Se il video non dovesse essere più disponibile scrivi a indytab@googlemail.com. Grazie!
COMMENTA QUESTA TABLATURA
Devi avere JavaScript attivato per poter commentare! (misura antispam)