IndyTab Logo

BETA VERSION - 321 TABS DISPONIBILI

Cerca una tablatura nel nostro archivio:

Gruppo Canzone


Elenco dei gruppi presenti su IndyTab
Lista di tutte le tablature di IndyTab
DISCLAIMER
Questa tablatura rappresenta l'interpretazione della canzone da parte dell'autore. Può essere usata per scopi di studio, insegnamento e ricerca.

La tab è liberamente riproducibile in forum, blog, siti web (ad eccezione degli archivi di tablature online) e stampabile. Non è obbligatorio ma molto gradito citare la fonte (cioè IndyTab), meglio con un link di rimando al nostro sito.
ACCORDATORE
Per accordare la tua chitarra puoi usare il nostro accordatore online
TAB REQUEST
Stai cercando una tablatura? Suggeriscila compilando il modulo sottostante!

Gruppo
Titolo
Tua Mail

(la tua mail verrà usata per ricontattarti quando la tablatura sarà online)
DELLO STESSO GRUPPO

Moravagine // Quello Che Voglio

Tablatura tratta dall'album: Ho Scritto Ti Amo Sulla Sabbia Del Gatto

(clicca qui per la legenda)

(clicca qui per il video)

    E   C#   A   B   F#
e|-----------------------|
B|-----------------------|
G|--9--------------------|
D|--9---11---7---9---4---|
A|--7---11---7---9---4---|
E|------9----5---7---2---|


--------------------------------------------------------------------------


INTRO (X2):

e|--------------------------------------------------|
B|--------------------------------------------------|
G|--9--9---9--9--8--6------9--9---9--9--8--6--------|
D|--------------------------------------------------|
A|--7--7---7--7--6--4------7--7---7--7--6--4--------|
E|--------------------------------------------------|
    E                      C#

e|--------------------------------------------------|
B|--------------------------------------------------|
G|--9--9---9--9--8--6------11-11--11-9-9-9-8--------|
D|--------------------------------------------------|
A|--7--7---7--7--6--4------9--9---9--7-7-7-6--------|
E|--------------------------------------------------|
    A                      B              [B]



STROFA 1:
(p.m.)
           E                          C#
Voglio una bici per pedalare, un orso vero con cui dormire

(da qui p.m. a colpi)

        A                               B   
un cane verde che sa parlare, voglio l'aereo presidenziale

    E                        C#
una pianta da coltivare, sigarette per fumare
 
e|-(ripetere più volte la prima ottava)----------------|
B|-----------------------------------------------------|
G|-------9---------------------------8-----------------|
D|-----------------------------------------------------|
A|-------7---------------------------6-----------------|
E|-----------------------------------------------------|
         A                           B   
un frigo pieno da svuotare, e un bel letto per riposare



RITORNELLO: 

    [B]  E                 A 
Che cosa voglio, a cosa mi serve, 
 
           C#                  F#
quello che voglio è quello che ho

         E                 A 
Che cosa voglio, a cosa mi serve, 
 
           C#                  F#
quello che voglio è quello che ho

(sotto al ritornello una chitarra
in sottofondo ripete:)
e|---------------|
B|---------------|
G|-------9-------|
D|---------------|
A|-------7-------|
E|---------------|



STROFA 2:
(p.m. a colpi)
            E                             C#
Voglio un gelato da un quintale, un posto vuoto per urlare

e|-(ripetere più volte la prima ottava)-|
B|--------------------------------------|
G|-----9------------------------8-------|
D|--------------------------------------|
A|-----7------------------------6-------|
E|--------------------------------------|
       A                        B   
una montagna di cazzate più qualcuno da picchiare

    E                     C#
Una donna tutta mia, un milione alla lotteria

e|-(ripetere più volte la prima ottava)--|
B|---------------------------------------|
G|------9-------------------------8------|
D|---------------------------------------|
A|------7-------------------------6------|
E|---------------------------------------|
        A                         B 
attraversare il nilo a nuoto e svegliarmi in un'altro posto



RITORNELLO: ripetere RITORNELLO. 



STACCO: ripetere INTRO.



STROFA 3:
(p.m.)

     [B] E                         C#  
Voglio vedere l'africa, toccare il sole e non morire

      A                       B 
avere fretta di parlare senza prima dover pensare

(p.m. a colpi)

   E                             C#
Un qualcosa da invidiare, un qualcuno per scappare

e|-(ripetere più volte la prima ottava)-----|
B|------------------------------------------|
G|--------9-------------------------8-------|
D|------------------------------------------|
A|--------7-------------------------6-------|
E|------------------------------------------|
          A                         B
vedere il mondo dalle stelle e ritrovarmi nelle stalle



ULTIMO RITORNELLO: 
(sotto al ritornello ripetere l'ottava come sopra)

    [B]  E                 A 
Che cosa voglio, a cosa mi serve, 
 
           C#                  F#
quello che voglio è quello che ho

         E                 A 
Che cosa voglio, a cosa mi serve, 
 
           C#                  F#
quello che voglio è quello che ho

(da qui la chitarra solista ripete due volte il RIFF2)

         E                 A 
Che cosa voglio, a cosa mi serve, 
 
           C#                  F#
quello che voglio è quello che ho

         E                 A 
Che cosa voglio, a cosa mi serve, 
 
           C#                  F#  [F#] E..
quello che voglio è quello che ho

RIFF2:
e|--------------------------------------------------|
B|--------------------------------------------------|
G|--9--9---9--9--8--6------9--9---9--9--8--6--------|
D|--------------------------------------------------|
A|--7--7---7--7--6--4------7--7---7--7--6--4--------|
E|--------------------------------------------------|
    E                      C#

e|--------------------------------------------------|
B|--------------------------------------------------|
G|--9--9---9--9--8--6------11-11----11-11---13-13---|
D|--------------------------------------------------|
A|--7--7---7--7--6--4------9--9-----9--9----11-11---|
E|--------------------------------------------------|
    A                      B       
      
VIDEO

Se il video non dovesse essere più disponibile scrivi a indytab@googlemail.com. Grazie!
COMMENTA QUESTA TABLATURA
Devi avere JavaScript attivato per poter commentare! (misura antispam)