IndyTab Logo

BETA VERSION - 321 TABS DISPONIBILI

Cerca una tablatura nel nostro archivio:

Gruppo Canzone


Elenco dei gruppi presenti su IndyTab
Lista di tutte le tablature di IndyTab
DISCLAIMER
Questa tablatura rappresenta l'interpretazione della canzone da parte dell'autore. Può essere usata per scopi di studio, insegnamento e ricerca.

La tab è liberamente riproducibile in forum, blog, siti web (ad eccezione degli archivi di tablature online) e stampabile. Non è obbligatorio ma molto gradito citare la fonte (cioè IndyTab), meglio con un link di rimando al nostro sito.
ACCORDATORE
Per accordare la tua chitarra puoi usare il nostro accordatore online
TAB REQUEST
Stai cercando una tablatura? Suggeriscila compilando il modulo sottostante!

Gruppo
Titolo
Tua Mail

(la tua mail verrà usata per ricontattarti quando la tablatura sarà online)
DELLO STESSO GRUPPO

Porno Riviste // Voglie Impresse

Tablatura tratta dall'album: Tensione 16

(clicca qui per la legenda)

(clicca qui per il video)

    E   A   D   C   F#  A#  G#  G   F
e|--------------------------------------|
B|--------------------------------------|
G|--9-------7---5-----------------------|
D|--9---7---7---5---4---8---6---5---3---|
A|--7---7---5---3---4---8---6---5---3---|
E|------5-----------2---6---4---3---1---|


--------------------------------------------------------------------------

Arpeggio1:
e|-------------------------------------------------|
B|-------------------------------------------------|
G|------9-----------9----------9----------9--------|
D|----9---9-------9---9------9---9------9---9------|
A|--7-----------7----------7----------7------------|
E|-------------------------------------------------|
   (E)

e|-------------------------------------------------|
B|-------------------------------------------------|
G|-------------------------------------------------|
D|------7-----------7----------7-------------------|
A|----7---7-------7---7------7---7-----------------|
E|--5-----------5----------5----------5--4---------|
   (A)

e|-------------------------------------------------|
B|-------------------------------------------------|
G|-------------------------------------------------|
D|------4-----------4----------4----------4--------|
A|----4---4-------4---4------4---4------4---4------|
E|--2-----------2----------2----------2------------|
   (F#)

e|-------------------------------------------------|
B|-------------------------------------------------|
G|-------------------------------------------------|
D|------7-----------7----------7----------7--------|
A|----7---7-------7---7------7---7------7---7------|
E|--5-----------5----------5----------5------------|
   (A)


Arpeggio2:
e|-------------------------------------------------|
B|-------------------------------------------------|
G|------9-----------9----------9----------9--------|
D|----9---9-------9---9------9---9------9---9------|
A|--7-----------7----------7----------7------------|
E|-------------------------------------------------|
   (E)

e|-------------------------------------------------|
B|-------------------------------------------------|
G|------7-----------7----------7----------7--------|
D|----7---7-------7---7------7---7------7---7------|
A|--5-----------5----------5----------5------------|
E|-------------------------------------------------|
   (D)

e|-------------------------------------------------|
B|-------------------------------------------------|
G|------5-----------5----------5----------5--------|
D|----5---5-------5---5------5---5------5---5------|
A|--3-----------3----------3----------3------------|
E|-------------------------------------------------|
   (C)

e|-------------------------------------------------|
B|-------------------------------------------------|
G|------7-----------7----------7----------7--------|
D|----7---7-------7---7------7---7------7---7------|
A|--5-----------5----------5----------5------------|
E|-------------------------------------------------|
   (D)



INTRO:
(Ripetere più volte le ottave, * accordi suonati a colpi)

e|------------------------------------------------------|
B|--12--------10---9----10----12--------10---9----10----|
G|------------------------------------------------------|
D|--9---------7----6----7-----9---------7----6----7-----|
A|------------------------------------------------------|
E|------------------------------------------------------|
    E*             E*         A*             A* 

e|------------------------------------------------------|
B|--12--------10---9----10----12------------------------|
G|------------------------------------------------------|
D|--9---------7----6----7-----9-------------------------|
A|------------------------------------------------------|
E|------------------------------------------------------|
    D*             D*         A*             A* 

e|------------------------------------------------------|
B|--12--------10---9----10----12--------10---9----10----|
G|------------------------------------------------------|
D|--9---------7----6----7-----9---------7----6----7-----|
A|------------------------------------------------------|
E|------------------------------------------------------|
    E                         A                 

e|------------------------------------------------------|
B|--12--------10---9----10----12-------------12..-------|
G|------------------------------------------------------|
D|--9---------7----6----7-----9--------------9..--------|
A|------------------------------------------------------|
E|------------------------------------------------------|
    D                         A              A..



STROFA 1:

Arpeggio1
(E)                                   (A)
Mi odio non voglio e mi perdo, quando parlo non guardo e ci penso

(A)(G#)(F#)
Ma più penso più scordo più sogno e dormo 

     (A) 
e non voglio svegliarmi da solo al freddo


Arpeggio2
      (E)                                  (D)
Ti sei chiesto cos'è il tuo vivere, ti distruggi per non decidere

    (C)
Aggrappato a qualcosa in cui credere 

          (D)
mentre il mondo ti affoga di favole



STACCO:
(Ripetere più volte le ottave, * accordi suonati a colpi)

e|------------------------------------------------------|
B|--12--------10---9----10----12--------10---9----10----|
G|------------------------------------------------------|
D|--9---------7----6----7-----9---------7----6----7-----|
A|------------------------------------------------------|
E|------------------------------------------------------|
    E*             E*         A*             A* 

e|------------------------------------------------------|
B|--12--------10---9----10----12------------------------|
G|------------------------------------------------------|
D|--9---------7----6----7-----9-------------------------|
A|------------------------------------------------------|
E|------------------------------------------------------|
    D*             D*         A 



STROFA 2:
(p.m.)

   E
Lo storto il coglione e il depresso

            A
questo è il trio che mi piace e lo ammetto

       F#
quando sono parole e non fatti

          A
fatti una flebo di merda e sarà lo stesso

       E
Sei rinchiuso e non vuoi più vivere?

D
continuerai solo a piangere

      C 
aggrappato a qualcosa a cui credere

          D
mentre il mondo ti affoga di favole



RITORNELLO:
(* accordi suonati a colpi)

         E*     E*       A*    A*
Voglie impresse   storie perse

         D*         D*          A*         [A][A] [A] [A]
in un pensiero morto quando sei vivo niente ti va storto

  E              A
e amati e non pensare ad altro

         F#                            F
anche se non hai niente sei sempre una storia

         G             A#  C  D  
anche se non ce la fai più

              A#  C  D
non ce la fai più



STROFA 3:

    E
Una storia è una storia sei o non sei niente

        A 
sei una stella o una stella cadente?

      F#
pensi sempre "che ho fatto perchè è successo"?

       A
quando fuori eri il mondo e dentro sei un cesso

        E                      D
C'è chi muore senza mai vivere non sei portato a difendere

           C                           
non sei un circo di plastica e cartone 

        D
sei una storia o la tua delusione?



RITORNELLO:
(* accordi suonati a colpi)

         E(p.m.)         A(p.m.)
Voglie impresse   storie perse

         D(p.m.)                A(p.m.)
in un pensiero morto quando sei vivo niente ti va storto

  E*    E*          A*           A*
e amati    e non pensare ad altro

         F#*           F#*                F
anche se non hai niente    sei sempre una storia

         G             A#  C  D  
anche se non ce la fai più

                A#  C  D
e non ce la fai più

                A#     C             D
e non ce la fai più, e non ce la fai più

                A#  C  D..
e non ce la fai più



ULTIMA STROFA:

  E..                                   A..
Osservo ascolto e ci vedo adesso voglio solo capire me stesso

       F#..              
mentre chi non mi capisce non mi sopporta 

       A..
perchè voglio restare da solo al freddo?


(una chitarra suona in p.m. suonando le note singole come negli arpeggi)

E(p.m.)
Spera sospira o dispera adesso

          D(p.m.)
quando il buio avrà preso gli argini

    G(p.m.)            D(p.m.)         A..
capirai che tra tanta merda una vita c'è
VIDEO

Se il video non dovesse essere più disponibile scrivi a indytab@googlemail.com. Grazie!
COMMENTA QUESTA TABLATURA
Devi avere JavaScript attivato per poter commentare! (misura antispam)