IndyTab Logo

BETA VERSION - 321 TABS DISPONIBILI

Cerca una tablatura nel nostro archivio:

Gruppo Canzone


Elenco dei gruppi presenti su IndyTab
Lista di tutte le tablature di IndyTab
DISCLAIMER
Questa tablatura rappresenta l'interpretazione della canzone da parte dell'autore. Puņ essere usata per scopi di studio, insegnamento e ricerca.

La tab č liberamente riproducibile in forum, blog, siti web (ad eccezione degli archivi di tablature online) e stampabile. Non č obbligatorio ma molto gradito citare la fonte (cioč IndyTab), meglio con un link di rimando al nostro sito.
ACCORDATORE
Per accordare la tua chitarra puoi usare il nostro accordatore online
TAB REQUEST
Stai cercando una tablatura? Suggeriscila compilando il modulo sottostante!

Gruppo
Titolo
Tua Mail

(la tua mail verrą usata per ricontattarti quando la tablatura sarą online)
DELLO STESSO GRUPPO

Derozer // Fedeli Alla Tribł

Tablatura tratta dall'album: Chiusi Dentro

(clicca qui per la legenda)

(clicca qui per il video)

    B  A#  G#  F#(II) E(0)  E  F#  D#  C#
e|------------------------------------------|
B|------------------------------------------|
G|--------------------------9--11--8--------|
D|--9--8---6----4------2----9--11--8---11---|
A|--9--8---6----4------2----7--9---6---11---|
E|--7--6---4----2------0---------------9----|


--------------------------------------------------------------------------


INTRO:
(a colpi)
B (A#) G# (F#(II)) E(0) F#(II) [F#(II)]



STROFA:

B
Una giornata a Chelsea

            F#
coi colori della squadra tua

  C#                         E     [C#][C#][F#][C#]
una giornata insieme alla brigata

B
Una giornata a Londra

        F#
con la birra che va gił

  C#                         E      [C#][C#][F#][C#]
e la tua vita per sempre č cambiata

    B
Non sarą mai pił come prima

  C#
dopo essere stato qui

E                 (A#) B                  B..    A#..
Dopo aver visto la tua squadra a Stamford Bridge

G#
Ed alla prossima occasione

C#
dovrai esserci anche tu

E                          F#..
Purchč giuri di essere per sempre...



RITORNELLO:

                B  F#
fedele alla tribł

                C# E D#
fedele alla tribł

                B  F#
fedele alla tribł

                C# E [D#]
fedele alla tribł



SOLO:
e|--------------------------------------------------------------------|
B|--------------------------------------------------------------------|
G|--9-8-----9-8------11-9-8-----------------------8-9-9-8----8--------|
D|------9-------9-----------11-----11-11-11-11-11---------11---11-9---|x2
A|--------9-------9---------------------------------------------------|
E|--------------------------------------------------------------------|
    B                F#            C#                 E      D#

e|--------------------------------------------------------------------|
B|--------------------------------------------------------------------|
G|---------------------------------------------------8-9-8------------|
D|----9-9-9----9-9-9---9-9-9------9-9-9-9-8-9-11-----------11-8-9-----|
A|-11-------11-------9-------7~---------------------------------------|
E|--------------------------------------------------------------------|
   B                 F#           C#          [E]              (B)



STROFA:

    B
Non sarą mai pił come prima

  C#
dopo essere stato qui

E                 (A#) B                  B..    A#..
Dopo aver visto la tua squadra a Stamford Bridge

G#
Ed alla prossima occasione

C#
dovrai esserci anche tu

E                          F#..
Purchč giuri di essere per sempre...



RITORNELLO:

                B  F#
fedele alla tribł

                C# E D#
fedele alla tribł

                B  F#
fedele alla tribł

                C# E.. D#.. B..
fedele alla tribł
VIDEO

Se il video non dovesse essere pił disponibile scrivi a indytab@googlemail.com. Grazie!
COMMENTA QUESTA TABLATURA
Devi avere JavaScript attivato per poter commentare! (misura antispam)