IndyTab Logo

BETA VERSION - 321 TABS DISPONIBILI

Cerca una tablatura nel nostro archivio:

Gruppo Canzone


Elenco dei gruppi presenti su IndyTab
Lista di tutte le tablature di IndyTab
DISCLAIMER
Questa tablatura rappresenta l'interpretazione della canzone da parte dell'autore. Può essere usata per scopi di studio, insegnamento e ricerca.

La tab è liberamente riproducibile in forum, blog, siti web (ad eccezione degli archivi di tablature online) e stampabile. Non è obbligatorio ma molto gradito citare la fonte (cioè IndyTab), meglio con un link di rimando al nostro sito.
ACCORDATORE
Per accordare la tua chitarra puoi usare il nostro accordatore online
TAB REQUEST
Stai cercando una tablatura? Suggeriscila compilando il modulo sottostante!

Gruppo
Titolo
Tua Mail

(la tua mail verrà usata per ricontattarti quando la tablatura sarà online)

Gerson // Rimparare A Strisciare

Tablatura tratta dall'album: Rimparare A Strisciare

(clicca qui per la legenda)

(clicca qui per il video)

    E  A  B  C#  E(0)
e|----------------------------|
B|----------------------------|
G|--9-------------------------|
D|--9--7--9--11--2------------|
A|--7--7--9--11--2------------|
E|-----5--7--9---0------------|


--------------------------------------------------------------------------


INTRO:
A B E(0)..
A B E(0)..



STROFA:
(palm muted)

       E              B
Siamo viscidi come i rettili,

   C#               A
affezionati ai suppellettili,

C#..                         B..
allergici alle leggi e alle file,

         E                B
tutti i sindaci, nonchè critici,

   C#                A
ed anche allenatori nel pallone,

C#..                      B..
sperando che non esploda mai

                         A B E(0)..
proprio nella nostra città.



RITORNELLO:
(accordi distorti normali)

E             B          C#             A
Ma adesso i giorni torneranno a essere pesi,

E           B             C#            A
colpa degli euri, del petrolio e dei cinesi.

E           B          C#         A
Scegliamo adesso di quale morte morire,

E             B          C#           A
che presto i gatti torneranno a scomparire.



PONTE:

       E..                   B..
Con la bava alla bocca ad appannare il vetro,

      C#..           B..
al negozio di telefonia,

        A..
con il borsello vuoto,

        E(0)..              A..               B..+B(p.m.)
il sacchetto del lidl e il sogno che ti vola via.

         E                       B
E a ogni passo che faccio è una merda che schiaccio

     C#                B
e sarà anche domani così,

        A                    E(0)
se per finire il mese ho venduto all'usato

        A               B A B   E(0)..
i miei dischi degli AC/DC e dei Clash.



RIPETERE IL RITORNELLO


SOLO:
e|------------------------------------------------------|
B|-17-------17-------17-------17-------17-------17------|
G|----16-16----16-16----16-------16-16----16-16----16---|
D|------------------------------------------------------|
A|------------------------------------------------------|
E|------------------------------------------------------|
   E(0)..                     E(0)..

e|------------------------------------------------------|
B|-17-------17-------17-------17-------17-------17------|
G|----16-16----16-16----16-------16-16----16-16----16---|
D|------------------------------------------------------|
A|------------------------------------------------------|
E|------------------------------------------------------|
   B..                        B..

e|------------------------------------------------------|
B|-17-------17-------17-------17-------17-------17------|
G|----16-16----16-16----16-------16-16----16-16----16---|
D|------------------------------------------------------|
A|------------------------------------------------------|
E|------------------------------------------------------|
   A(p.m.)

e|-----------------------------19--------------------------|
B|-19b21r19-17----17-19-17--19b21r19--19b21--19b21--19b21--|
G|-------------18------------------------------------------|
D|---------------------------------------------------------|
A|---------------------------------------------------------|
E|---------------------------------------------------------|
   B(p.m.)                      B



PONTE:

       E..                         B..
Con un bel cappio al collo, ed un calcio alla sedia

    C#..                        B..
c'è chi ha già risolto i suoi guai,

      A..                 E(0)..         A..              B..+B(p.m.)
ha passato una vita a sperare nei numeri che non uscivano mai.

        E                      B
Se la storia ci insegna che andava alla gogna,

      C#              B          A
chi stava sulle barricate, chi rubava monete

     E(0)                  A                   B
per fame o per sete ora è morto con le tasche vuote,



STACCO:

                 E(0) A
e allora rubo da te,

         B     E(0) A       B          C#
senza scrupoli nè     pentimenti o ragioni

A         B         E [E] pickslide
ora è più forte di me.



RIPETERE IL RITORNELLO



ULTIMO RITORNELLO:

(suonare in sottofondo questo RIFF)
e|----------------------------------------------|
B|----------------------------------------------|
G|---9--9--9--8--8--6--8--9--8--6--4--6---------|
D|---------------------------------------7------|
A|---7--7--7--6--6--4--6--7--6--4--2--4---------|
E|---------------------------------------5------|

E             B          C#             A
Ma adesso i giorni torneranno a essere pesi,

E           B             C#            A
colpa degli euri, del petrolio e dei cinesi.

E           B          C#         A
Scegliamo adesso di quale morte morire,

E             B          C#..         A     B E(0).. [E]
che presto i gatti torneranno a scomparire.
VIDEO

Se il video non dovesse essere più disponibile scrivi a indytab@googlemail.com. Grazie!
COMMENTA QUESTA TABLATURA
Devi avere JavaScript attivato per poter commentare! (misura antispam)