IndyTab Logo

BETA VERSION - 321 TABS DISPONIBILI

Cerca una tablatura nel nostro archivio:

Gruppo Canzone


Elenco dei gruppi presenti su IndyTab
Lista di tutte le tablature di IndyTab
DISCLAIMER
Questa tablatura rappresenta l'interpretazione della canzone da parte dell'autore. Può essere usata per scopi di studio, insegnamento e ricerca.

La tab è liberamente riproducibile in forum, blog, siti web (ad eccezione degli archivi di tablature online) e stampabile. Non è obbligatorio ma molto gradito citare la fonte (cioè IndyTab), meglio con un link di rimando al nostro sito.
ACCORDATORE
Per accordare la tua chitarra puoi usare il nostro accordatore online
TAB REQUEST
Stai cercando una tablatura? Suggeriscila compilando il modulo sottostante!

Gruppo
Titolo
Tua Mail

(la tua mail verrà usata per ricontattarti quando la tablatura sarà online)
DELLO STESSO GRUPPO

Duracel // Novanta

Tablatura tratta dall'album: La Fabbrica Dei Mostri

(clicca qui per la legenda)

(clicca qui per il video)

    A  E  D  F#  C#  B
e|-----------------------|
B|-----------------------|
G|-----9--7--11--6-------|
D|--7--9--7--11--6---9---|
A|--7--7--5--9---4---9---|
E|--5----------------7---|


--------------------------------------------------------------------------


INTRO:
A (E) D (F#) E (una chitarra)
A+A.. (E) D+D.. (F#) [E]+[E] (due chitarre)



RITORNELLO:

                 A                  D    E
Ridatemi le Allstar ridatemi gli anni novanta

A                      D
con mila e shiro e il grunge

  E          A         E
rifatemi kerplunk perchè

     D     E
non vivo più

                 A                  D    E
Ridatemi le Allstar ridatemi gli anni novanta

A              D
la mia verginità

  E              A        E
ridatemi il pop punk perchè

     D     E  A
non vivo più



STROFA:

A             E
Io non cambierò

D           E
sono fuori moda

     A          C#    D      E
non torneranno più lo so ma prego

A         D    E        A            D   E
  in una magia in una magia in una magia

A               E     D         E
morta dentro ormai la mia generazione

 A               C#    D      E
sogni non ne ha più io sì ci credo

A         D    E        A            D   E
  in una magia in una magia in una magia



STACCO:

D         A        E                 D          
cerco nella fantasia cerco nei miei sogni

     A         E                [E]
fra la nostalgia tutti i giorni



RITORNELLO:

                 A                  D    E
Ridatemi le Allstar ridatemi gli anni novanta

A                      D
con mila e shiro e il grunge

  E          A         E
rifatemi kerplunk perchè

     D     E
non vivo più

                 A                  D    E
Ridatemi le Allstar ridatemi gli anni novanta

A              D
la mia verginità

  E              A        E
ridatemi il pop punk perchè

     D     E
non vivo più



STACCO:

D          A          E
Dentro le tasche dei jeans

D          A           E
cerco fra dischi e playjim

D         A      E
cerco nella fantasia

    B           D               E     [E]
che fa la nostalgia di tutti i giorni



SOLO:
e|--------------------------------------------|
B|--------------------------------------------|
G|--9-9-7-6-----------------------------------|
D|----------9-7-------7-----7------7-6---9----|
A|--------------7---7---------9-9------7------|
E|----------------9---------------------------|
              A            (E)D  (F#)E

e|-------------------------------------|
B|-------------------------------------|
G|-------------------------------------|
D|----7-------7-----7-------7-6---9----|
A|------7---7---------9-9-------7------|
E|--------9----------------------------|
      A            (E)D   (F#)E

e|-------------------------------------|
B|-------------------------------------|
G|-------------------------------------|
D|----7-------7-----7-------7-6---9----|
A|------7---7---------9-9-------7------|
E|--------9----------------------------|
      A            (E)D   (F#)E

e|-------------------------------------|
B|-------------------------------------|
G|-------------------------------------|
D|----7-------7-----7-------7-6--------|
A|------7---7---------9-9-------7\-----|
E|--------9----------------------------|
      A            (E)D   (F#)E



ULTIMO RITORNELLO:
(in minuscolo gli accordi fatti solo dal basso)

                 A                [D]
Ridatemi le Allstar ridatemi gli anni novanta

a                      d
con mila e shiro e il grunge

  e              A        E
ridatemi il pop punk perchè

     D     E
non vivo più

            A
Ridatemi le Allstar

             D      E      A
ridatemi gli anni novanta

             D      E      A
ridatemi gli anni novanta

             D      E      A
ridatemi gli anni novanta

             D      E      (A)
ridatemi gli anni novanta

            A
Ridatemi le Allstar

     E      D       E     A..     [A]
perchè non riesco più a crescere
VIDEO

Se il video non dovesse essere più disponibile scrivi a indytab@googlemail.com. Grazie!
COMMENTA QUESTA TABLATURA
Devi avere JavaScript attivato per poter commentare! (misura antispam)