IndyTab Logo

BETA VERSION - 321 TABS DISPONIBILI

Cerca una tablatura nel nostro archivio:

Gruppo Canzone


Elenco dei gruppi presenti su IndyTab
Lista di tutte le tablature di IndyTab
DISCLAIMER
Questa tablatura rappresenta l'interpretazione della canzone da parte dell'autore. Può essere usata per scopi di studio, insegnamento e ricerca.

La tab è liberamente riproducibile in forum, blog, siti web (ad eccezione degli archivi di tablature online) e stampabile. Non è obbligatorio ma molto gradito citare la fonte (cioè IndyTab), meglio con un link di rimando al nostro sito.
ACCORDATORE
Per accordare la tua chitarra puoi usare il nostro accordatore online
TAB REQUEST
Stai cercando una tablatura? Suggeriscila compilando il modulo sottostante!

Gruppo
Titolo
Tua Mail

(la tua mail verrà usata per ricontattarti quando la tablatura sarà online)
DELLO STESSO GRUPPO

Persiana Jones // Il Momento Di Reagire

Tablatura tratta dall'album: Agarra La Onda

(clicca qui per la legenda)

(clicca qui per il video)

       A     D      B     E      F# 
e|-----------------------------------|
B|-----------------------------------|
G|-----------7------------9----------|
D|-----7-----7------9-----9------4---|
A|-----7-----5------9-----7------4---|
E|-----5------------7------------2---|


--------------------------------------------------------------------------

INTRO:

(La nota con * viene suonata facendo un pick harmonic)

e|----------------------------------------------------------------|
B|----------------------------------------------------------------|
G|----------------------------------------------------------------|
D|------------------------------------------------------------7*--|
A|----------5-6-7-----------7-6-5--------------5-6-7--------------|
E|---5-5--8------------5-5--------8-----5-5--8---------5-5-5------|

e|----------------------------------------------------------------|
B|----------------------------------------------------------------|
G|----------------------------------------------------------------|
D|----------------------------------------------------------------|
A|----------5-6-7-----------7-6-5--------------5-6-7--------------|
E|---5-5--8------------5-5--------8-----5-5--8---------5-5-4-5----|



RITORNELLO:

A      D      B         E     (D) 
Adesso sicuro puoi dire vaffanculo

A      D      B         E     (D) 
adesso sicuro puoi dire vaffanculo


STROFA 1:

A(p.m.)       F#(p.m.)      D(p.m.)           E 
quando non funziona, quando tutto è contro di te

A(p.m.)       F#(p.m.)      D(p.m.)          E 
quando chi ti ascolta non capisce quello che vuoi


RITORNELLO: come sopra


STROFA 2:

A(p.m.)       F#(p.m.)     D(p.m.)           E 
troppe son le volte che ti perdi senza un perché

A(p.m.)      F#(p.m.)    Re(p.m.)       E 
troppe le persone che ti usano senza pietà


PONTE:

D    E             A      F# 
è il momento di reagire ormai

D    E        A    F# 
o nessuno capirà

D        E            A     F# 
cerca in fretta di reagire 

D     E             [A]  
sarà dura anche per te


OUTRO:

(La nota con * viene suonata facendo un pinch harmonic)

e|----------------------------------------------------------------|
B|----------------------------------------------------------------|
G|----------------------------------------------------------------|
D|------------------------------------------------------------7*--|
A|----------5-6-7-----------7-6-5--------------5-6-7--------------|
E|---5-5--8------------5-5--------8-----5-5--8---------5-5-5------|

e|----------------------------------------------------------------|
B|----------------------------------------------------------------|
G|----------------------------------------------------------------|
D|------------------------------------------------------------7---|
A|----------5-6-7-----------7-6-5--------------5-6-7--------------|
E|---5-5--8------------5-5--------8-----5-5--8---------5-5-5------| 


[A]

VIDEO

Se il video non dovesse essere più disponibile scrivi a indytab@googlemail.com. Grazie!
COMMENTA QUESTA TABLATURA
Devi avere JavaScript attivato per poter commentare! (misura antispam)