IndyTab Logo

BETA VERSION - 321 TABS DISPONIBILI

Cerca una tablatura nel nostro archivio:

Gruppo Canzone


Elenco dei gruppi presenti su IndyTab
Lista di tutte le tablature di IndyTab
DISCLAIMER
Questa tablatura rappresenta l'interpretazione della canzone da parte dell'autore. Può essere usata per scopi di studio, insegnamento e ricerca.

La tab è liberamente riproducibile in forum, blog, siti web (ad eccezione degli archivi di tablature online) e stampabile. Non è obbligatorio ma molto gradito citare la fonte (cioè IndyTab), meglio con un link di rimando al nostro sito.
ACCORDATORE
Per accordare la tua chitarra puoi usare il nostro accordatore online
TAB REQUEST
Stai cercando una tablatura? Suggeriscila compilando il modulo sottostante!

Gruppo
Titolo
Tua Mail

(la tua mail verrà usata per ricontattarti quando la tablatura sarà online)
DELLO STESSO GRUPPO

Peter Punk // La Radio Dello Zio

Tablatura tratta dall'album: XI

(clicca qui per la legenda)

    A  E  F#  D  D#  E(0)  
e|------------------------|
B|------------------------|
G|-----9------7--8--------|
D|--7--9--4---7--8----2---|
A|--7--7--4---5--6----2---|
E|--5-----2-----------0---|


--------------------------------------------------------------------------


INTRO:
e|--------------------------------------------------|
B|-------9-----10-9---------------9-----10-9--------|
G|--9-11---9--------11-9-----9-11---9--------11-----|
D|--------------------------------------------------|
A|--------------------------------------------------|
E|--------------------------------------------------|
    A          E             A          E    E..

e|-------------------------------------------/12\---|
B|-------9-----10-9---------------9-----------------|
G|--9-11---9--------11-9-----9-11-----9-11~---------|
D|--------------------------------------------------|
A|--------------------------------------------------|
E|--------------------------------------------------|
    F#         D             A          E



STROFA:

A        E
se resti chiuso in casa,

A          E
la pioggia a dirotto,

F#        D          E+FILL1
nessuno a farti compagnia

A          E
che strana sensazione,

A         E
la voglia di mollare,

F#          D            E     D#/E
lasciarsi andare, ma per chi?

FILL1:
e|--------------------------------------|
B|-15b17-15b17-15b7r15p12----12---------|
G|------------------------14----14-12~--|
D|--------------------------------------|
A|--------------------------------------|
E|--------------------------------------|



PONTE:

D..        A..           D..          A..
fuori vedo grigio ma è azzurro dentro me

      D..          A..           E   [E] [E][E]
e già tutti i miei amici sono al bar



STROFA:

A       E
la noia può sparire

A          E
se tu vuoi ascoltare

F#        D             E + FILL1
questo consiglio che ti do

A        E
se cambi la frequenza

A          E
le onde di una radio

F#           D         E  D#/E
speciale quanto lo sei tu



PONTE:

D..       A..           D..           A..
una birra fresca e un panino con lo spek

      D..             A..            E   [E] [E][E]
mia sorella ascolta a palla Britti e Nek



RITORNELLO:

[A]               E..
tutto è uguale al giorno prima

[F#] [F#] [F#][F#] D
tut - to  tranne   lei

       A             E
metti questo, metti quello

       [F#] [F#] [F#][F#]  D
zio ma met - ti  il Rock'n'Roll

A                 E
tutto è uguale al giorno prima

[F#] [F#] [F#][F#] D
tut - to  tranne   lei

       A             E
metti questo, metti quello

       [F#] [F#] [F#][F#]  D
zio ma met - ti  il Rock'n'Roll



SOLO:
e|---------------------------------------|
B|-----10----10--------------------------|
G|--11----11----11-9-------9-11-9--------|
D|----------------------11---------------|
A|---------------------------------------|
E|---------------------------------------|
    A        E          A       E

e|---------------------------------------|
B|-----10----10----------12b14r12-10-----|
G|-/11----11----11-9---------------------|
D|---------------------------------------|
A|---------------------------------------|
E|---------------------------------------|
   F#         D          A        E

e|---------------------------------------|
B|-----10----10--------------------------|
G|--11----11----11-9---------------------|
D|----------------------11-11-11-11/\----|
A|---------------------------------------|
E|---------------------------------------|
    A        E          [A][A][A]E..

e|---------------------------------------|
B|-----10----10----------14-14-12~-------|
G|-/11----11----11-9---------------------|
D|---------------------------------------|
A|---------------------------------------|
E|---------------------------------------|
   F#        D           A     E



PONTE:

F#                   D
grande speakers alla radio

A                    E(0)
e lo zio allegria ci da

F#                        D
il mio ombrello è nell'armadio

A                 E(0)    [E(0)] [E(0)][E(0)]
quasi quasi resto qua...



ULTIMO RITORNELLO:

[A]               E..
tutto è uguale al giorno prima

[F#] [F#] [F#][F#] D
tut - to  tranne   lei

       A             E
metti questo, metti quello

       [F#] [F#] [F#][F#]  D
zio ma met - ti  il Rock'n'Roll

A                 E
tutto è uguale al giorno prima

[F#] [F#] [F#][F#] D
tut - to  tranne   lei

       A             E
metti questo, metti quello

       [F#] [F#] [F#][F#]  D..
zio ma met - ti  il Rock'n'Roll

       [F#] [F#] [F#][F#]  D..
zio ma met - ti  il Rock'n'Roll

       [F#] [F#] [F#][F#]  D..
zio ma met - ti  il Rock'n'Roll

(ripetere le ottave)
e|---------------------|
B|---------------------|
G|--9--/--16-----------|
D|---------------------|
A|--7--/--14-----------|
E|---------------------|
    E            A..
COMMENTA QUESTA TABLATURA
Devi avere JavaScript attivato per poter commentare! (misura antispam)