IndyTab Logo

BETA VERSION - 321 TABS DISPONIBILI

Cerca una tablatura nel nostro archivio:

Gruppo Canzone


Elenco dei gruppi presenti su IndyTab
Lista di tutte le tablature di IndyTab
DISCLAIMER
Questa tablatura rappresenta l'interpretazione della canzone da parte dell'autore. Può essere usata per scopi di studio, insegnamento e ricerca.

La tab è liberamente riproducibile in forum, blog, siti web (ad eccezione degli archivi di tablature online) e stampabile. Non è obbligatorio ma molto gradito citare la fonte (cioè IndyTab), meglio con un link di rimando al nostro sito.
ACCORDATORE
Per accordare la tua chitarra puoi usare il nostro accordatore online
TAB REQUEST
Stai cercando una tablatura? Suggeriscila compilando il modulo sottostante!

Gruppo
Titolo
Tua Mail

(la tua mail verrà usata per ricontattarti quando la tablatura sarà online)
DELLO STESSO GRUPPO

Ska-P // Ñapa Es

Tablatura tratta dall'album: El Vals Del Obrero

(clicca qui per la legenda)

(clicca qui per il video)

   Bm(II) Bm   A    G    F#     B   A   G   F#  E
e|---2----7----5----3----2---|----------------------|
B|---3----7----5----3----2---|----------------------|
G|---4----7----6----4----3---|--9-------------------|
D|--(4)--(9)--(7)--(5)--(4)--|--9---7---5---4---2---|
A|--(2)--(9)--(7)--(5)--(4)--|--7---7---5---4---2---|
E|-------(7)--(5)--(3)--(2)--|------5---3---2---0---|
         Acordes ska          Acordes distorsionados

--------------------------------------------------------------------------


INTRO DE BAJO:
G|-------------------------|
D|-------------------------|
A|-------------------------|  
E|--5h6h7----7-3----3-2----|


INTRO GUITARRA:
e|-----------------------------------------------------|
B|-----7------8-7h8p7---7------7-8-8--7-8--7---7-8-7---|
G|--------------------9----------------------9---------|
D|-----------------------------------------------------|
A|-----------------------------------------------------|
E|-----------------------------------------------------|
 |                                                     |
e|-----------------------------------------------------|
B|-----------------------------------------------------|
G|-----------------------------------------------------|
D|-----------------------------------------------------|
A|-0h1-------------------------------------------------|
E|-----------------------------------------------------|
       Bm(II) G         F#         Bm(II)   [G]    F#..



ESTROFA 1:
(ritmo raggae)

          Bm(II)     G           F#
Hablo de Espaqa y me lleno de emoción

        (F#)Bm(II)       G           F#
y es que te llevo muy dentro del corazón

 (F#)Bm(II)  G          F#
castañuelas, toros y verbenas

(F#)Bm(II)        [G]       F#..
 mi España, la tierra del honor.



ESTROFA 2:
(ritmo ska)

             Bm       G             F#
Ésta es la España del Felipe y del Aznar,

     Bm       G           F#
la España democratica del Gal,

     Bm           G          F#
la España de la estafa inmobiliaria,

        Bm            G         [F#][F#][F#][F#]
la delincuencia en la alta sociedad.

      Bm            G          F#
Politicuchos que se inflan a robar

     Bm              G         F#
los asesinos hoy vuelven a torear

  Bm       G            F#
España, el país de la patraña

        Bm          G         [F#][F#][F#][F#]
de trapicheros, pelotazos y demas



PUNENTE:
(ritmo ska)

   G 
Y aquí no pasa nada, nos comemos la tostada, 

     F#
ni siquiera te levantas del sofa.

G
Vaya decepción en la manifestación,

    F#                 [F#]
solamente han ido los antidisturbios.



ESTRIBILLO:

(ritmo ska + guitara distorionada)

Bm             A               G                 F#
Sí, JESULÍN, España es así, la tierra donde yo nací

Bm             A                G                     [F#][F#][F#][F#]
Sí, JESULÍN, España es así, que sepas que vamos a por tí

[Bm][Bm]   [G][G][G]  [F#][F#][F#][F#]    

[Bm][Bm]   [G][G][G]  [F#][F#][F#][F#]  

Bm  A  G  F#

B  A  G  

(guitara distorionada)

e|------------------------------------------|
B|------------------------------------------|
G|------------------------------------------|
D|------------------------------------------|
A|------------------------------------------|
E|--------------------------------2/14\2----|
   [F#][G] [F#][G] [F#][E][F#]



ESTROFA 2:
(ritmo ska)

         Bm           G            F#
Y son curritos que no pueden ni currar

       Bm            G             F#
negociaciones dignas de un Nehandertal

       Bm      G           F#
trabajadores pagando los errores

     Bm                 G                   [F#][F#][F#][F#]
como siempre, al que no tiene hay que explotar. 

        Bm           G          F#
Somos Europa, no nos podemos quejar
 
        Bm       G           F#
hemos entrado en el gran capital

       Bm          G         F#
imperialismo que devora tu nevera

         Bm         G            [F#][F#][F#][F#]
y la vaselina en el culo bien "untá".



PUENTE: reptir el PUENTE.



ESTRIBILLO: 

(ritmo ska + gutara distorionada)

Bm             A               G                 F#
Sí, JESULÍN, España es así, la tierra donde yo nací

Bm             A                G                     [F#][F#][F#][F#]
Sí, JESULÍN, España es así, que sepas que vamos a por tí

[Bm][Bm]   [G][G][G]  [F#][F#][F#][F#]    

[Bm][Bm]   [G][G][G]  [F#][F#][F#][F#]  

Bm  A  G  F#

B  A  G  

(guitara distorionada)

[F#][G] [F#][G] [F#][E][F#]
VIDEO

Se il video non dovesse essere più disponibile scrivi a indytab@googlemail.com. Grazie!
COMMENTA QUESTA TABLATURA
Devi avere JavaScript attivato per poter commentare! (misura antispam)