IndyTab Logo

BETA VERSION - 321 TABS DISPONIBILI

Cerca una tablatura nel nostro archivio:

Gruppo Canzone


Elenco dei gruppi presenti su IndyTab
Lista di tutte le tablature di IndyTab
DISCLAIMER
Questa tablatura rappresenta l'interpretazione della canzone da parte dell'autore. Può essere usata per scopi di studio, insegnamento e ricerca.

La tab è liberamente riproducibile in forum, blog, siti web (ad eccezione degli archivi di tablature online) e stampabile. Non è obbligatorio ma molto gradito citare la fonte (cioè IndyTab), meglio con un link di rimando al nostro sito.
ACCORDATORE
Per accordare la tua chitarra puoi usare il nostro accordatore online
TAB REQUEST
Stai cercando una tablatura? Suggeriscila compilando il modulo sottostante!

Gruppo
Titolo
Tua Mail

(la tua mail verrà usata per ricontattarti quando la tablatura sarà online)
DELLO STESSO GRUPPO

FFD // Per Non Dimenticare

Tablatura tratta dall'album: Let's All Unite

(clicca qui per la legenda)

(clicca qui per il video)

    D  A  B  G  G(X)      D   A     G
e|-------------------|----5---5-----3----|
B|-------------------|----7---5-----3----|
G|--7-----------12---|----7---6-----4----|
D|--7--7--9--5--12---|----7---7-----5----|
A|--5--7--9--5--10---|---(5)-(7)---(5)---|
E|-----5--7--3-------|-------(5)---(3)---|
    accordi punk          accordi ska

--------------------------------------------------------------------------


INTRO:
(palm muted)
D A B G

(ripetere le ottave a colpi)
e|---------------------|
B|---------------------|
G|-7-------------------|
D|---------------------|
A|-5-------------------|
E|---------------------|
   D A B G(X)

e|---------------------|
B|---------------------|
G|-7-------------------|
D|-4-------------------|
A|---------------------|
E|---------------------|
   D A B G(X)

(accordi normali)
e|------------------------------------------|
B|---------------7------7-8-----8-7---------|
G|-----6-7-----9----------------------------|
D|---------7-7-----9-9------5-5-------------|x3
A|-5-5--------------------------------------|
E|------------------------------------------|
   D       A       B        G

e|------------------------------------------|
B|---------------7------7-8-----8-7---------|
G|-----6-7-----9---------------------7~-----|
D|---------7-7-----9-9------5-5-------------|
A|-5-5--------------------------------------|
E|------------------------------------------|
   D       A       B        G



STROFA:

D                     A
Ricordati la storia e non dimenticare

D                            A
vent'anni di fascismo e di regime militare

G                A
tristi segni indelebili sul nostro cuore

G                       A
ferite profonde che non si possono rimarginare

D                          A
ricordati chi ha detto "così non si può stare"

D                           A
parto per la montagna e la resistenza popolare

G                         A
ricordati chi è caduto perchè vendeva l'unità

G                      A
se solo sapesse quanta merda e pubblicità

D                       A
ricordati chi ha detto "non saremo mai più servi"

D                     A
ricorda Matteotti e i sette fratelli Cervi

G                   A
tutti caduti per la nostra libertà

G                 A
ormai dimenticati dalla nostra società



RITORNELLO:

  D                              A
E chi ha vissuto la storia ce la deve insegnare

    B                    G          A
Per non dimenticare! Per non dimenticare!

   D                   A
Se resteremo uniti non ci potran fermare

    B                       G             A
Non smetter di lottare! Non smetter di lottare!

  D                       A
Milioni di ribelli che gridan rivoluzione

   B                    G          A
Boicotta la nazione! Boicotta la nazione!

  D                        A
Ricordati i caduti di ogni giusta insurrezione

    B                   G        A
Per la rivoluzione! Per la rivoluzione!



RIFF:
e|-----------------------------------------|
B|---------------7------7-8-----8-7--------|
G|-----6-7-----9---------------------------|
D|---------7-7-----9-9------5-5------------|
A|-5-5-------------------------------------|
E|-----------------------------------------|
   D       A       B        G

e|-----------------------------------------|
B|---------------7------7-8-----8-7--------|
G|-----6-7-----9---------------------7~----|
D|---------7-7-----9-9------5-5------------|
A|-5-5-------------------------------------|
E|-----------------------------------------|
   D       A       B        G



STROFA:

D                       A
Ricordati chi ha detto "salveremo il mondo"

D                    A
ricorda gli anni bui detti anni di piombo

G                     A
dissero armiamoci e corriamo contro vento

G                  A
abbatteremo questo muro di cemento

D                    A
e c'eran fiumi di compagni nelle strade

D                           A
le città in fiamme e poi le stragi non pagate

G                     A
il parlamento firma accordi con la destra

G                     A
mentre Pinelli vola giù dalla finestra

D                       A
ricorda chi resta a marcir nelle galere

D                           A
non ci sarà mai più tanto abuso di potere

G                     A
Mario Lupo è stato ucciso a coltellate

G                   A
Mara e Silvia non saran mai dimenticate



RITORNELLO:
Ripetere il ritornello.



STACCO:
D (in pal muted a colpi)



SOLO:
(accordi ska)
e|-----------------------------------------------------|
B|-----------------------------------------------------|
G|-----7---7~--9h11p9----9-11-9~---9h11p9----9-11-7~---|
D|---9---9------------12------------------12-----------|
A|-----------------------------------------------------|
E|-----------------------------------------------------|
           D                  A                   D

e|---------------------------------------------------------------------|
B|-----------------------------10b12~-10b12r10p8h10-10b12-10-8-7-8-10~-|
G|--9h11p9----9-11-9-7-6-----------------------------------------------|
D|---------12------------9-7~------------------------------------------|
A|---------------------------------------------------------------------|
E|---------------------------------------------------------------------|
                   A           G                          A

e|--------10------------------------------------------|
B|--10b12~...12r10p8h10-10b12-10~--7h8p7--------------|
G|----------------------------------------9-7-6-7~----|
D|----------------------------------------------------|
A|----------------------------------------------------|
E|----------------------------------------------------|
    G                         A                (D)



STROFA:
(accordi ska)

D
Il fronte zapatista non accetta il patto messicano

  A
ricordati il massacro del popolo nativo americano

D
Salavador che non voleva il governo militare

   A
ma puoi fu attaccato sia dal cielo sia dal mare

  G
ricorda chi ha occupato l'ambasciata giapponese

A
Alima Tupac Amaru vive ancora oggi più di prima

  G
E se a Bilbao si grida nè in spagnolo nè in francese

   A
mentre Israele occupa la terra palestinese

    D
per non dimenticare digo non dimenticare

A
non dimenticare ricorda non dimenticare

D
non dimenticare te digo non dimenticare

A
non dimenticare ricorda non dimenticare

G                 A
  non dimenticare mai

G                 A
  per non dimenticare WOW!



OUTRO:
(palm muted)
D A B G

(ripetere le ottave a colpi)
e|---------------------|
B|---------------------|
G|-7-------------------|
D|---------------------|
A|-5-------------------|
E|---------------------|
   D A B G(X)

e|---------------------|
B|---------------------|
G|-7-------------------|
D|-4-------------------|
A|---------------------|
E|---------------------|
   D A B G(X)

(accordi normali)
e|--------------------------------------------------|
B|---------------7------7-8-----8-7-----------------|
G|-----6-7-----9------------------------------------|
D|---------7-7-----9-9------5-5---------------------|x3
A|-5-5----------------------------------------------|
E|--------------------------------------------------|
   D       A       B        G

e|--------------------------------------------------|
B|---------------7------7-8-----8-7-----------------|
G|-----6-7-----9----------------------6/7~----------|
D|---------7-7-----9-9------5-5---------------------|
A|-5-5----------------------------------------------|
E|--------------------------------------------------|
   D       A       B        G           D..
VIDEO

Se il video non dovesse essere più disponibile scrivi a indytab@googlemail.com. Grazie!
COMMENTA QUESTA TABLATURA
Devi avere JavaScript attivato per poter commentare! (misura antispam)