IndyTab Logo

BETA VERSION - 321 TABS DISPONIBILI

Cerca una tablatura nel nostro archivio:

Gruppo Canzone


Elenco dei gruppi presenti su IndyTab
Lista di tutte le tablature di IndyTab
DISCLAIMER
Questa tablatura rappresenta l'interpretazione della canzone da parte dell'autore. Può essere usata per scopi di studio, insegnamento e ricerca.

La tab è liberamente riproducibile in forum, blog, siti web (ad eccezione degli archivi di tablature online) e stampabile. Non è obbligatorio ma molto gradito citare la fonte (cioè IndyTab), meglio con un link di rimando al nostro sito.
ACCORDATORE
Per accordare la tua chitarra puoi usare il nostro accordatore online
TAB REQUEST
Stai cercando una tablatura? Suggeriscila compilando il modulo sottostante!

Gruppo
Titolo
Tua Mail

(la tua mail verrà usata per ricontattarti quando la tablatura sarà online)
DELLO STESSO GRUPPO

Duracel // Germano (con le Cattive Abitudini)

(clicca qui per la legenda)

(clicca qui per il video)

    D  G  A  B  C#
e|------------------|
B|------------------|
G|--7--------4--6---|
D|--7--5--7--4--6---|
A|--5--5--7--2--4---|
E|-----3--5---------|


--------------------------------------------------------------------------
Canzone scritta in collaborazione con le CATTIVE ABITUDINI
--------------------------------------------------------------------------


STROFA:

D..                      G   [D][D][D]
Nella mia vita quante eresie

A                D          A
Sono Germano e lavoro alla tv

D                            G   [D][D][D]
Se c'è uno sbaglio un errore mio

A                     D    (D)(C#)
Io me la prenderò con Dio!



PONTE:

B
Se non bestemmio

G
Stavo pensando

D
Stavo sentendo

A
La coscienza che diceva

B             G
Dolce signore devi capire

D
Se io mi incazzo

A
Me la prendo con qualcuno Gesù cristo non nessuno!



RITORNELLO:

D     A     G            A
Woooo woooo è germano il nostro esempio

D     A        G            A
Woooo woooo di questa società

D     A     G             A
Woooo woooo la bestemmia vien da dentro

D     A       G           A
Woooo woooo negare è inutile!



SOLO:
e|----------------10-10-9-7----------------|
B|------7-8-10--------------10-8-7---------|
G|--7-9----------------------------9-7-----|
D|-----------------------------------------|
A|-----------------------------------------|
E|-----------------------------------------|
    D             G

e|----------------10-10-9-10-/12-10--------|
B|------7-8-10-----------------------------|
G|--7-9------------------------------------|
D|-----------------------------------------|
A|-----------------------------------------|
E|-----------------------------------------|
    D       A     G           

e|--10------7----------------------------------------|
B|-----10-7---7--------------------------------------|
G|----------------7-9b11-9b11r9-7-9---9b11r9-7-7~----|
D|--------------9------------------------------------|
A|---------------------------------------------------|
E|---------------------------------------------------|
    D       A     G               A            D..



STROFA:

D..                 G    [D][D][D]
Nel mio lavoro sono cosi

A                     D             A             
A volte teso anche nervoso più che mai!

D                         G  [D][D][D]
Se sbaglio mentre faccio tg

A                        D     (D)(C#)
Poi darò sfogo a tutti i guai!



PONTE:

B
Ma chi è quel mona?

G
Sbatte la porta!

D
Antonio Fosso!

A
E le carte con la colla!

B             G
Santo Natale, la processione

D
E pure pasqua

A
non le vivo con passione se non mollo un bestemmione



RITORNELLO:

D     A     G            A
Woooo woooo è germano il nostro esempio

e|--------------------------------------------------|
B|-----------------------------7----7----7----------|
G|-----------------------------9b11-9b11-9b11-7~\---|
D|--------------------------------------------------|
A|--------------------------------------------------|
E|--------------------------------------------------|
   D     A        G            A
   Woooo woooo di questa società

D     A     G             A
Woooo woooo la bestemmia vien da dentro

e|----------------------------------------------------|
B|--------------------------------10------10-----10b--|
G|---------------------------9b11----9b11----9-7------|
D|----------------------------------------------------|
A|----------------------------------------------------|
E|----------------------------------------------------|
   D     A       G           A                   A..
   Woooo woooo negare è inutile! Negare è inutile!



OUTRO:
A

D                    G        A
Sei come un uragano, bestemmi Germano

D                       G       A
E non ci lasci indenni, Germano bestemmi

D            B            G       A
Dai fuoco ai miei magoni, Germano Mosconi

D                G       D
Germano Mosconi, Germano Mosconi

D                G       D
Mosconi Germano, Mosconi Germano

D                G       D
Germano Mosconi, Germano Mosconi

D                G       D
Mosconi Germano, Mosconi Germano

D                G       D
Germano Mosconi, Germano Mosconi

D                G       D
Mosconi Germano, Mosconi Germano

D                G       D
Germano Mosconi, Germano Mosconi

D                G       D
Mosconi Germano, Mosconi Germano

(a dissolvere)
VIDEO

Se il video non dovesse essere più disponibile scrivi a indytab@googlemail.com. Grazie!
COMMENTA QUESTA TABLATURA
Devi avere JavaScript attivato per poter commentare! (misura antispam)