IndyTab Logo

BETA VERSION - 321 TABS DISPONIBILI

Cerca una tablatura nel nostro archivio:

Gruppo Canzone


Elenco dei gruppi presenti su IndyTab
Lista di tutte le tablature di IndyTab
DISCLAIMER
Questa tablatura rappresenta l'interpretazione della canzone da parte dell'autore. Può essere usata per scopi di studio, insegnamento e ricerca.

La tab è liberamente riproducibile in forum, blog, siti web (ad eccezione degli archivi di tablature online) e stampabile. Non è obbligatorio ma molto gradito citare la fonte (cioè IndyTab), meglio con un link di rimando al nostro sito.
ACCORDATORE
Per accordare la tua chitarra puoi usare il nostro accordatore online
TAB REQUEST
Stai cercando una tablatura? Suggeriscila compilando il modulo sottostante!

Gruppo
Titolo
Tua Mail

(la tua mail verrà usata per ricontattarti quando la tablatura sarà online)

Sottomarca // Anarkia

Tablatura tratta dall'album: Altrimenti Ce Ne Andiamo

(clicca qui per la legenda)

(clicca qui per il video)

    C  F  G  A  B  D      C   F   G
e|--------------------|---3---1---3----|
B|--------------------|---5---1---3----|
G|--5--------------7--|---5---2---4----|
D|--5--3--5--7--9--7--|---5---3---5----|
A|--3--3--5--7--9--5--|--(3)-(3)-(5)---|
E|-----1--3--5--7-----|------(1)-(3)---|
     accordi punk        accordi ska 

--------------------------------------------------------------------------


INTRO:
(accordi punk)
e|------------------------------------------------------------------|
B|-5~-8-6~--------8-8-6-6-5-5-----5~-8-6~-8b10r8~---8---6---5-------|
G|---------5-7~---------------7-7---------------------5---5---5-7---|
D|------------------------------------------------------------------|
A|------------------------------------------------------------------|
E|------------------------------------------------------------------|
   C..  F..  G.. (F)     (G)      C..  F..     G.. (F)     (G)



RIFF:
(accordi ska)
e|-------------------------------------------------|
B|--5---5---6-5------5-------------6-5------5------|
G|----5---5-----5--5---5---7---7-------5--5---5----|
D|---------------------------5---5-----------------|
A|-------------------------------------------------|
E|-------------------------------------------------|
    C       F              G      (F) (G)

e|-------------------------------------------------|
B|--5---5---6-5------5-------------6-5-------------|
G|----5---5-----5--5---5---7---7-------5~----------|
D|---------------------------5---5-----------------|
A|-------------------------------------------------|
E|-------------------------------------------------|
    C       F              G      (F) (G)



STROFA:
(accordi ska)

   C                     F
Ho scelto l'anarkia perchè voglio esser libero

  G                   (F)      (G)
è stata colpa mia, non una fantasia

   C                        F
ho scelto quel percorso che mi fa stare bene

  G                    (F)         (G)
infatti io non voglio subire le mie pene



PONTE:
(accordi punk)

 A                     F
uscire fuori casa, non fare proprio un cazzo

   A                          F              G
la mia vita è quella di esser libero come un razzo

A               C
essere diverso, fare ciò che voglio

G                        
devo fare in modo di aumentare il mio orgoglio!



RITORNELLO:
(accordi punk)

C     G   F  A G
Anarchi - a

C     G   F  A G
Anarchi - a

C     G   F  A G
Anarchi - a

C     G   F  A G
Anarchi - a



STACCO:
Ripetere il RIFF.



STROFA:
(accordi ska)

     C                   F
distruggere la noia, ammazzare tutti i truzzi

G                        (F)          (G)
sono gli obiettivi che mi sembrano più giusti

  C                      F
pogare nei concerti è il mio unico sfogo,

     G                  (F)              (G)
distruggere la scuola, andare in mezzo al pogo



PONTE:
Ripetere il ponte.



RITORNELLO:
Ripetere il ritornello.



SOLO:
e|------------------------------------------------------------------|
B|------------------------------------------------------------------|
G|----------5---5-7-7---7-7h8p7-5---------7h8p7-5---------7h8p7-5---|
D|--7-7---7---7-------------------5-5---5---------------------------|
A|------------------------------------------------8-8---8-----------|
E|------------------------------------------------------------------|
    A             C               G               F

e|-----------------------------------10-8----8----------------------|
B|----------------------------------------10---10-8---8-------------|
G|----------5---5-7-7---7-7-5-7-9-------------------9---9-7-9-7-7~--|
D|--7-7---7---7-----------------------------------------------------|
A|------------------------------------------------------------------|
E|------------------------------------------------------------------|
    A             C                  G                  F



STACCO:
A.. A.. A.. A..



ULTIMO RITORNELLO:

D     A   G  B A
Anarchi - a

D     A   G  B A
Anarchi - a

D     A   G  B A
Anarchi - a

D     A   G  B A D..
Anarchi - a
VIDEO

Se il video non dovesse essere più disponibile scrivi a indytab@googlemail.com. Grazie!
COMMENTA QUESTA TABLATURA
Devi avere JavaScript attivato per poter commentare! (misura antispam)