IndyTab Logo

BETA VERSION - 321 TABS DISPONIBILI

Cerca una tablatura nel nostro archivio:

Gruppo Canzone


Elenco dei gruppi presenti su IndyTab
Lista di tutte le tablature di IndyTab
DISCLAIMER
Questa tablatura rappresenta l'interpretazione della canzone da parte dell'autore. Può essere usata per scopi di studio, insegnamento e ricerca.

La tab è liberamente riproducibile in forum, blog, siti web (ad eccezione degli archivi di tablature online) e stampabile. Non è obbligatorio ma molto gradito citare la fonte (cioè IndyTab), meglio con un link di rimando al nostro sito.
ACCORDATORE
Per accordare la tua chitarra puoi usare il nostro accordatore online
TAB REQUEST
Stai cercando una tablatura? Suggeriscila compilando il modulo sottostante!

Gruppo
Titolo
Tua Mail

(la tua mail verrà usata per ricontattarti quando la tablatura sarà online)
DELLO STESSO GRUPPO

Cattive Abitudini // Ogni Volta

Tablatura tratta dall'album: Tutto Fa Parte Di Noi

(clicca qui per la legenda)

(clicca qui per il video)

    C  G  A  F  F(VIII) G(X) A(XII)  C(VIII)
e|----------------------------------------|
B|----------------------------------------|
G|--5-------------10----12----14----------|
D|--5--5--7--3----10----12----14------10--|
A|--3--5--7--3----8-----10----12------10--|
E|-----3--5--1------------------------8---|


--------------------------------------------------------------------------


INTRO:
e|-------------------------------------------------|
B|-------------------------------------------------|
G|---5-7---10-9------5-7---10-9------5-7---10-9----|
D|-------------------------------------------------|
A|---3-5---8--7------3-5---8--7------3-5---8--7----|
E|-------------------------------------------------|
     C               F               A

e|----------------------------|
B|----------------10-8--------|
G|---10--12---10--------------|
D|----------------7--5--------|
A|---8---10---8---------------|
E|----------------------------|
     G



STROFA:

[C]                   [G]
Quando ritorno a casa dopo aver fatto festa

[A]                         [F]            [G]
non trovo più le chiavi, ho perso anche la testa!

[C]                  [G]
ma quanta sofferenza le scale da affrontare

[A]                   [F]        G..
barcollo ma non mollo ce la devo fare

F                       G
se incontro un genitore sai cosa dirò?



RITORNELLO:

C            F             A      G
Scusa ma son massa blusa e punk!  huoohoo

C            F             A      G
Scusa ma son massa blusa e punk!  huoohoo 

C            F             A      G
Scusa ma son massa blusa e punk!  huoohoo

C            F             A      G
Scusa ma son massa blusa e punk!  huoohoo



STROFA:

[C]                 [G]
La camera è distante mi sembra un labirinto

[A]                 [F]            [G]
ma devo fare piano e non mi dò per vinto

[C]                [G]
la vista si riduce non trovo mai la luce

[A]                 [F]           G..
e per non far casino becco il comodino!

F                       G
se incontro un genitore sai cosa dirò?



RITORNELLO:
(ripetere il ritornello)



STACCO:

[F][F]   [F][F]   [G][G]   [G][G] [G] [G]

[F][F]   [F][F]   [G][G] [G][G] [G][G] [G][G]



PONTE:

[C]\
scusa ma so massa messo mal! uoooooh

[C]\
scusa ma so massa messo mal! uoooooh

[C]\
scusa ma so massa messo mal! uoooooh

[C]\                    pickslide
scusa ma so massa messo mal! uoooooh



ULTIMO RITORNELLO:

C(VIII)      F(VIII)       A(XII)  G(X)
Scusa ma son massa blusa e punk!   uoooooh

C(VIII)      F(VIII)       A(XII)  G(X)
Scusa ma son massa blusa e punk!   uoooooh

C(VIII)      F(VIII)       A(XII)  G(X)
Scusa ma son massa blusa e punk!   uoooooh

C(VIII)      F(VIII)       [A(XII)]  [G(X)][G(X)][G(X)] C(VIII)..
Scusa ma son massa blusa e punk!
VIDEO

Se il video non dovesse essere più disponibile scrivi a indytab@googlemail.com. Grazie!
COMMENTA QUESTA TABLATURA
Devi avere JavaScript attivato per poter commentare! (misura antispam)