IndyTab Logo

BETA VERSION - 321 TABS DISPONIBILI

Cerca una tablatura nel nostro archivio:

Gruppo Canzone


Elenco dei gruppi presenti su IndyTab
Lista di tutte le tablature di IndyTab
DISCLAIMER
Questa tablatura rappresenta l'interpretazione della canzone da parte dell'autore. Pu essere usata per scopi di studio, insegnamento e ricerca.

La tab liberamente riproducibile in forum, blog, siti web (ad eccezione degli archivi di tablature online) e stampabile. Non obbligatorio ma molto gradito citare la fonte (cio IndyTab), meglio con un link di rimando al nostro sito.
ACCORDATORE
Per accordare la tua chitarra puoi usare il nostro accordatore online
TAB REQUEST
Stai cercando una tablatura? Suggeriscila compilando il modulo sottostante!

Gruppo
Titolo
Tua Mail

(la tua mail verr usata per ricontattarti quando la tablatura sar online)
DELLO STESSO GRUPPO

Derozer // Sogno

Tablatura tratta dall'album: Di Nuovo In Marcia

(clicca qui per la legenda)

(clicca qui per il video)

     G   E   C   D   A
e|-----------------------|
B|-----------------------|
G|-----------5---7-------|
D|---5---2---5---7---7---|
A|---5---2---3---5---7---|
E|---3---0-----------5---|


--------------------------------------------------------------------------

      
INTRO:

e|------------------------------------|
B|------------------------------------|
G|---------4--------5-4-----5-4---4---|
D|---5---7---7----5-----7-5-----7-----|
A|------------------------------------|
E|------------------------------------|
     G

e|------------------------------------|
B|------------------------------------|
G|---------4--------5-4-----5-4---4---|
D|---5---7---7----5-----7-5-----7-----|
A|------------------------------------|
E|------------------------------------|
     E

e|------------------------------------|
B|------------------------------------|
G|-------4-5-4------5-4-----5-4---4---|
D|---7------------7-----7-5-----7-----|
A|------------------------------------|
E|------------------------------------|
     C

e|---------------------------------------|
B|---------------------------------------|
G|-------4-5-4------7-5-4-5-4------------|
D|---7------------7-----------7-5-4-5..--|
A|---------------------------------------|
E|---------------------------------------|
     D                              G



STROFA:

  G                        
Immagina di vivere una vita perfetta, 

E
dove si realizzano davvero i sogni tuoi

  C                
Immagina di stare sempre bene tra la gente 

     D
dove tutti stanno bene con te

  G    
Immagina di vivere in un mondo pi sincero 

E
dove il re denaro non c' pi

  C    
Immagina quel volto sempre allegro e sorridente 

       D 
che le lacrime non solcheranno pi! 



PONTE:
            C                       D
Immagina se puoi un mondo senza religione 

             A                           C 
dove l'unico Dio l'unico credo sia il rispetto 

            D
siano il rispetto e l'amore



STACCO: 

e|------------------------------------|
B|------------------------------------|
G|---------4--------5-4-----5-4-------|
D|---5---7---7----5-----7-5-----7-5---|
A|------------------------------------|
E|------------------------------------|
     G

e|------------------------------------|
B|------------------------------------|
G|---------4--------5-4-----5-4-------|
D|---5---7---7----5-----7-5-----7-5---|
A|------------------------------------|
E|------------------------------------|
     E

e|------------------------------------|
B|------------------------------------|
G|-------4-5-4------5-4-----5-4---4---|
D|---7------------7-----7-5-----7-----|
A|------------------------------------|
E|------------------------------------|
     C

e|---------------------------------------|
B|---------------------------------------|
G|-------4-5-4------7-5-4-5-4------------|
D|---7------------7-----------7-5-4-5..--|
A|---------------------------------------|
E|---------------------------------------|
     D                              G..



STROFA 2:

  G..
Immagina di vivere una vita perfetta, 

[E] E..
    dove si realizzano davvero i sogni tuoi, 

[C] C.. 
    niente pi confini, niente muri n bandiere ,

  [D] D..       D..     D..    D..
tutti cittadini come lo sei tu

  G
Immagina di vivere in un mondo pi sincero 

E
dove il re denaro non c' pi

    C
e l'unico motivo per il pianto di un bambino 

     D
sara solo l'avere sbagliato un gol!



PONTE:
            C                       D
Immagina se puoi un mondo senza religione 

             A                           C 
dove l'unico Dio l'unico credo sia il rispetto 

            D
siano il rispetto e l'amore



CORO FINALE:

     G
Ma  solo un sogno ( solo un sogno)

     E
Ma  solo un sogno ( solo un sogno)

     C
Ma  solo un sogno ( solo un sogno)

          D
 solo un sogno,  solo un maledettissimo sogno

     G
Ma  solo un sogno ( solo un sogno)

     E
Ma  solo un sogno ( solo un sogno)

     C
Ma  solo un sogno ( solo un sogno)

          D                               G..
 solo un sogno,  solo un maledettissimo sogno
VIDEO

Se il video non dovesse essere pi disponibile scrivi a indytab@googlemail.com. Grazie!
COMMENTA QUESTA TABLATURA
Devi avere JavaScript attivato per poter commentare! (misura antispam)