IndyTab Logo

BETA VERSION - 321 TABS DISPONIBILI

Cerca una tablatura nel nostro archivio:

Gruppo Canzone


Elenco dei gruppi presenti su IndyTab
Lista di tutte le tablature di IndyTab
DISCLAIMER
Questa tablatura rappresenta l'interpretazione della canzone da parte dell'autore. Può essere usata per scopi di studio, insegnamento e ricerca.

La tab è liberamente riproducibile in forum, blog, siti web (ad eccezione degli archivi di tablature online) e stampabile. Non è obbligatorio ma molto gradito citare la fonte (cioè IndyTab), meglio con un link di rimando al nostro sito.
ACCORDATORE
Per accordare la tua chitarra puoi usare il nostro accordatore online
TAB REQUEST
Stai cercando una tablatura? Suggeriscila compilando il modulo sottostante!

Gruppo
Titolo
Tua Mail

(la tua mail verrà usata per ricontattarti quando la tablatura sarà online)
DELLO STESSO GRUPPO

Porno Riviste // Buoni Sconto

Tablatura tratta dall'album: Tensione 16

(clicca qui per la legenda)

(clicca qui per il video)

    B  C#  E(0)  E  F#  F#(IX)
e|---------------------------|
B|---------------------------|
G|--4--6---------9-------11--|
D|--4--6----2----9--4----11--|
A|--2--4----2----7--4----9---|
E|----------0-------2--------|


--------------------------------------------------------------------------


INTRO:
[B][B] [C#][C#] [E(0)][E(0)]
[B][B] [C#][C#] [E(0)][E(0)] F#..



STROFA:

B
Hanno intasato la città

   C#
di buoni e innocenti

    E
che spiegano che ha un senso


lo schifo in cui ti senti

B         C#    E
giustificano la scelta occidentale

B          C#      E
si vestono bene ci giudicano male

[B][B] [C#][C#] [E(0)][E(0)]

   B                    C#
Hanno venduto giacche a masse di pezzenti

   E
in modo che diffondono lo stile dei potenti

B         C#        E
Tu non ci sei più è tutto in automatico

B        C#     E                   C#.. E(0).. F#..
felice pulito positivista statico



RITORNELLO:

B          F#              E(0)
Stiamo affilando questi coltelli stiamo scaldandoci

B          F#              E(0)
Stiamo affilando questi coltelli stiamo scaldandoci



STACCO:
B C# E
B C# E F#..



STROFA:

[B][B]
Hanno diviso in zone in classi ed in capitoli


hanno inventato i nomi hanno cambiato i titoli

[B][B]
E' fatto così il mondo degli stupidi

[B][B]
il più stupido poi comanda sugli stupidi



SOLO:
|------------------------------------------------------|
|------------------------------------------------------|
|-6---6-9-8-6--------------6-8---8-9-8-6-8-------6-8-6-|
|---------------9-8----8-9-----------------9---9-------|
|--------------------9---------------------------------|
|------------------------------------------------------| 
  C#..            F#         B             E

|--------------------------------------|
|--------------------------------------|
|-6-8-9-8-6--------------6---------6---|
|------------9-8-----8-9---9-----8-----|
|------------------9-----------9-------|
|--------------------------------------| 
  C#           F#          E

e|-9-9-12-11-9-----------------9-11--11-12-11-9-11-------|
B|-------------12-11-----11-12---------------------12----|
G|--------------------11---------------------------------|
D|-------------------------------------------------------|
A|-------------------------------------------------------|
E|-------------------------------------------------------|
   C#             F#             B                 E

e|----9-11-9----11-12--11h12p11--9-----------------9-------|
B|-12------------------------------12-11-----11-12---12~---|
G|----------------------------------------11---------------|
D|---------------------------------------------------------|
A|---------------------------------------------------------|
E|---------------------------------------------------------|
           C#                         F#             E



RITORNELLO:

[B]        [F#]           E(0)..
Stiamo affilando questi coltelli stiamo scaldandoci

B          F#              E(0)
Stiamo affilando questi coltelli stiamo scaldandoci

B          F#              E(0)
Stiamo affilando questi coltelli stiamo scaldandoci

B..         F#..            E(0)..
Stiamo iniettando sangue di lupo nella tua macchina



PONTE:
(palm muted)

B F# E
B F# E

B F# E
     (scaldandoci)

B F# E
     (scaldandoci)

B                  F#   E
Buoni sconto nelle mani mi si attaccano alle dita

B                    F#    E
Non ho gusto nell'acquisto ma c'ho gusto nella vita

B                         F#   E
Buoni sconto appesi ad un filo la missione di una vita

B                   F#     E              E(normale)
Non ho gusto nell'acquisto situazione definita



RITORNELLO:
(accordi normali)

B            F#           E
Buoni sconto buoni sconto buoni sconto

B            F#           E
Buoni sconto buoni sconto buoni sconto

B            F#           E
Buoni sconto buoni sconto buoni sconto

B            F#           E(0)..
Buoni sconto buoni sconto eaaaa



PONTE:
(palm muted)

B          F#              E
Stiamo affilando questi coltelli stiamo scaldandoci

B          F#              E
Stiamo affilando questi coltelli stiamo scaldandoci

B          F#              E
Stiamo affilando questi coltelli stiamo scaldandoci

B+B..      F#+F#(IX)..     E+E..            E(normale)  
Stiamo affilando questi coltelli stiamo scaldandoci


OUTRO:
(accordi  normali)

B                  F#              E
Stiamo         affilando questi coltelli stiamo scaldandoci
Buoni sconto nelle mani            mi si attaccano alle dita

B                   F#              E
Stiamo          affilando questi coltelli stiamo scaldandoci
Non ho gusto nell'acquisto          ma c'ho gusto nella vita

B            F#              E
Stiamo   affilando questi coltelli stiamo scaldandoci
Buoni sconto buoni sconto    buoni sconto

B            F#              E..
Stiamo   affilando questi coltelli
Buoni sconto buoni sconto    buoni sconto     buoni sconto
VIDEO

Se il video non dovesse essere più disponibile scrivi a indytab@googlemail.com. Grazie!
COMMENTA QUESTA TABLATURA
Devi avere JavaScript attivato per poter commentare! (misura antispam)