IndyTab Logo

BETA VERSION - 321 TABS DISPONIBILI

Cerca una tablatura nel nostro archivio:

Gruppo Canzone


Elenco dei gruppi presenti su IndyTab
Lista di tutte le tablature di IndyTab
DISCLAIMER
Questa tablatura rappresenta l'interpretazione della canzone da parte dell'autore. Può essere usata per scopi di studio, insegnamento e ricerca.

La tab è liberamente riproducibile in forum, blog, siti web (ad eccezione degli archivi di tablature online) e stampabile. Non è obbligatorio ma molto gradito citare la fonte (cioè IndyTab), meglio con un link di rimando al nostro sito.
ACCORDATORE
Per accordare la tua chitarra puoi usare il nostro accordatore online
TAB REQUEST
Stai cercando una tablatura? Suggeriscila compilando il modulo sottostante!

Gruppo
Titolo
Tua Mail

(la tua mail verrà usata per ricontattarti quando la tablatura sarà online)
DELLO STESSO GRUPPO

Duracel // traccia nascosta di Decido Io

Tablatura tratta dall'album: Decido Io

(clicca qui per la legenda)

    G  F#  E  B  C  D
e|----------------------|
B|----------------------|
G|------------4--5--7---|
D|--5--4---2--4--5--7---|
A|--5--4---2--2--3--5---|
E|--3--2---0------------|


--------------------------------------------------------------------------
traccia 11 da 7m50s
--------------------------------------------------------------------------


RIFF:
e|----------------------------------------------|
B|----------------------10/12----12-13-12-------|
G|--12-12--14-14-12~----------14----------14----|
D|----------------------------------------------|
A|----------------------------------------------|
E|----------------------------------------------|
    G      F#     E        C        D



INTRO:
Ripetere il RIFF quattro volte (chiudere con 12 sulla corda G).



STROFA:
(palm muted)

G            D      C          D
E Michael lo sa che passano di bocca in bocca

G           D     C           D
le strane notizie che riguardano la gnocca

(da qui accordi normali)

G               D     C            D
aveva una ragazzina e la sua vita era normale

G              D       C         D
che a volte fa male ma consolava far l'amore



STACCO:
Ripetere il RIFF due volte (chiudere con 12 sulla corda G).



STROFA:

G               D     C         D
E però sola lei viene prese da paure

G                 D        C            D
e va a chiedere aiuto a un prete servo del potere

G               D         C         D
e nel confessionale lo sciagurato viene a dire

C..         D..
signora mia è peccato far l'amore



STACCO:
Ripetere il RIFF due volte (chiudere con 12 sulla corda G).



RITORNELLO:

G               D  C             D
siamo tutti con te Michael noi tifiamo amore

G               D     C              D
siamo tutti con te in camera o in un letto ad ore

G               D           C           D
non abbiamo santini oppure sacre immagini del cazzo

G          D             C..
e a lei diciamo tutti in coro

                   D..
ave maria piena di grazia

         C..      D..       (G)
ego te absolvo in nomine ignorantia



STACCO:
Ripetere il RIFF quattro volte, chiudere con G..



PONTE:
(palm muted)

B C D x2

e|---------------------------------/12------------|
B|-----15----15----15----15------------15-12-15---|
G|--12----12----12----12----12~-------------------|
D|------------------------------------------------| x3
A|------------------------------------------------|
E|------------------------------------------------|
    B           C           D

e|------------------------------------------------|
B|-----15----15----15----15-----------------------|
G|--12----12----12----12----12~\\\----------------|
D|------------------------------------------------|
A|------------------------------------------------|
E|------------------------------------------------|
    B           C           D..



RITORNELLO:

G               D  C             D
siamo tutti con te Michael noi tifiamo amore

G               D  C             D
siamo tutti con te Michael noi tifiamo amore

G               D  C             D
siamo tutti con te Michael noi tifiamo amore

G               D  C             D         G..
siamo tutti con te Michael siamo tutti con te
COMMENTA QUESTA TABLATURA
Devi avere JavaScript attivato per poter commentare! (misura antispam)