IndyTab Logo

BETA VERSION - 321 TABS DISPONIBILI

Cerca una tablatura nel nostro archivio:

Gruppo Canzone


Elenco dei gruppi presenti su IndyTab
Lista di tutte le tablature di IndyTab
DISCLAIMER
Questa tablatura rappresenta l'interpretazione della canzone da parte dell'autore. Può essere usata per scopi di studio, insegnamento e ricerca.

La tab è liberamente riproducibile in forum, blog, siti web (ad eccezione degli archivi di tablature online) e stampabile. Non è obbligatorio ma molto gradito citare la fonte (cioè IndyTab), meglio con un link di rimando al nostro sito.
ACCORDATORE
Per accordare la tua chitarra puoi usare il nostro accordatore online
TAB REQUEST
Stai cercando una tablatura? Suggeriscila compilando il modulo sottostante!

Gruppo
Titolo
Tua Mail

(la tua mail verrà usata per ricontattarti quando la tablatura sarà online)
DELLO STESSO GRUPPO

Marsh Mallows // Chiedi Scusa

Tablatura tratta dall'album: Qualcosa Di Nessuno

(clicca qui per la legenda)

    D   A   A#  C
e|------------------|
B|------------------|
G|--7-----------5---|
D|--7---7---8---5---|
A|--5---7---8---3---|
E|------5---6-------|


--------------------------------------------------------------------------


INTRO:

(accordi puliti)

D  A  A#  C    (X2)


(accordi distorti)

D  A  A#  C    (X2)



RIFF:

e|--------------------------------------------------|
B|--------------------------------------------------|
G|--------------------------------------------------|
D|--7--5-3---5-3----5-3---2-------------------------|
A|--------------------------5-3---------------------|
E|--------------------------------------------------|
    D    A     A#     C

e|--------------------------------------------------|
B|-----------------------------3-5------------------|
G|------------------------2/5-----------------------|
D|--7--5-3---5-3-----3/5----------------------------|
A|-----------------5--------------------------------|
E|--------------------------------------------------|
    D    A     A#         C

e|--------------------------------------------------|
B|--6---8-6---8-6---8-6-----------------------------|
G|-------------------------9--5---------------------|
D|-------------------------------7------------------|
A|--------------------------------------------------|
E|--------------------------------------------------|
    D     A     A#    C

e|-----------------------------8--------------------|
B|--10---8-6---8-6-----6-8-8b10..r8-6h8p6-----------|
G|-------------------7--------------------7---------|
D|--------------------------------------------------|
A|--------------------------------------------------|
E|--------------------------------------------------|
    D      A     A#          C



STROFA 1:
(palm muted)

D            A           A#            C
Chiedi scusa a tua madre per il tuo egoismo innato

D         A            A#            C
Sono solo degli errori ma puoi esser perdonato 

D              A            A#               C
Chiedi scusa a chi ti ama a chi ti ha sempre rispettato 

D              A                 A#          C
Chiedi scusa a chi hai tradito e non ti sentirai più solo
 


RITORNELLO:
(accordi aperti)

D          A    A#          C
Chiedi scusa, a chi pensava che soffrivi 

D          A    A#         C
Chiedi scusa, e non sapeva che fingevi 

D          A  A#        C
Chiedi scusa, alla vita che vivevi 

D          A     A#           C
Chiedi scusa, ma chiedi scusa per favore 



STACCO: ripetere il RIFF.



STROFA 2:

D..
Chiedi scusa a tua madre per il tuo egoismo immane 

                                    [C] C(p.m.)
Sono solo degli errori ma puoi esser perdonato 

(palm muted)

D              A            A#               C
Chiedi scusa a chi ti ama e chi ti ha sempre rispettato 

D              A                A#          C
Chiedi scusa a chi hai tradito, non ti sentirai più solo 



RITORNELLO: come sopra.



STACCO (X2):

e|----------------------------------------------------|
B|----------------------------------------------------|
G|----------------------------------------------------|
D|----------------------------------------5-----------|
A|-----------------------------5-7-8--7-8------8-7----|
E|-------------------------------------------------8--|
    [D] [D]  A(p.m.) [A] [A]

e|----------------------------------------------------|
B|----------------------------------------------------|
G|----------------------------------------------------|
D|----------------------------------------5-----------|
A|-----------------------------5-7-8--7-8---8-7-5-----|
E|------------------------------------------------8---|
    [D] [D]  A(p.m.) [A] [A]



RITORNELLO FINALE:
e|--------------------------------------------------------------|
B|-13b15-13b15-13b15--13b15-13b15-13b15--13b15-13b15-13b15------|
G|--------------------------------------------------------------|
D|--------------------------------------------------------------|
A|--------------------------------------------------------------|
E|--------------------------------------------------------------|
   D          A  A#    C
   Chiedi scusa, uohooohooo

e|-----------------------------------/13-13-13---/15-15-15------|
B|-15b17-15b17-15b17-15b17-15b17--------------------------------|
G|--------------------------------------------------------------|
D|--------------------------------------------------------------|
A|--------------------------------------------------------------|
E|--------------------------------------------------------------|
   D          A  A#    C
   Chiedi scusa, uohooohooo

e|--------------------------------------------------------------|
B|-13b15-13b15-13b15--13b15-13b15-13b15--13b15-13b15-13b15------|
G|--------------------------------------------------------------|
D|--------------------------------------------------------------|
A|--------------------------------------------------------------|
E|--------------------------------------------------------------|
   D          A  A#    C
   Chiedi scusa, uohooohooo

e|--------------------------------/13-13-13---/15-15-17-15--20\-|
B|-15b17-15b17-15b17-15b17-15b17--------------------------------|
G|--------------------------------------------------------------|
D|--------------------------------------------------------------|
A|--------------------------------------------------------------|
E|--------------------------------------------------------------|
   D          A     A#           C                          [D]\
   Chiedi scusa, ma chiedi scusa per favore
COMMENTA QUESTA TABLATURA
Devi avere JavaScript attivato per poter commentare! (misura antispam)