IndyTab Logo

BETA VERSION - 321 TABS DISPONIBILI

Cerca una tablatura nel nostro archivio:

Gruppo Canzone


Elenco dei gruppi presenti su IndyTab
Lista di tutte le tablature di IndyTab
DISCLAIMER
Questa tablatura rappresenta l'interpretazione della canzone da parte dell'autore. Può essere usata per scopi di studio, insegnamento e ricerca.

La tab è liberamente riproducibile in forum, blog, siti web (ad eccezione degli archivi di tablature online) e stampabile. Non è obbligatorio ma molto gradito citare la fonte (cioè IndyTab), meglio con un link di rimando al nostro sito.
ACCORDATORE
Per accordare la tua chitarra puoi usare il nostro accordatore online
TAB REQUEST
Stai cercando una tablatura? Suggeriscila compilando il modulo sottostante!

Gruppo
Titolo
Tua Mail

(la tua mail verrà usata per ricontattarti quando la tablatura sarà online)
DELLO STESSO GRUPPO

Porno Riviste // Il Gioco

Tablatura tratta dall'album: Codice A Sbarre

(clicca qui per la legenda)

    C  Bb F  G  Ab A
e|---------------------|
B|---------------------|
G|--5--3---------------|
D|--5--3--3--5--6--7---|
A|--3--1--3--5--6--7---|
E|--------1--3--4--5---|


--------------------------------------------------------------------------


STROFA 1:

[C]
    Vivo vivo in un gioco e mi gioco l’alibi di chi

          [Bb]                 [Bb]      [Bb] [Bb] 
non vuole prendersi, non vuole credersi

C(p.m.)
La parte bella del gioco che è l’occhio pallido di chi

           Bb(p.m.)  F(p.m.)
vive gli ostacoli, 

           Bb(p.m.)  Ab(p.m.)          C
come degli ospiti,             senza miracoli



RITORNELLO:

D            Ab        C
Ma senti nel fondo c’è già

D        Ab       C
l'eco di mille città

D        Ab        C        A..
l’ultima voce è di chi? Chissà…



STROFA 2:

[C]
    Vivo vivo per gioco e gioco con gli abili e con chi

           [Bb]               [Bb]    [Bb] [Bb]
vive tra i solidi ed ha mille alibi

C(p.m.)
Sei sordo o ci pensi poco o sei intorno agli aliti di chi

           Bb(p.m.)  F(p.m.)
cerca di illuderti 

               Bb(p.m.)  Ab(p.m.)             C
e vuole i tuoi attimi,             gli attimi deboli



RITORNELLO:

D            Ab        C
Ma senti nel fondo c’è già

D        Ab       C
l'eco di mille città

D        Ab       C        A
l’ultima voce sei tu e chissà…



PONTE:

F                C                      F
Perché non ridi mai di fronte a chi sai tu

                 C                      F
perché non vivi mai dalle tue spalle in su

                Bb                   F
ti senti immobile, alzi le spalle e vai

               G                      C
non senti i lividi, li vedi e non li hai

                 F                      C
Tu che non ridi mai di fronte a chi sai tu

                F                     Bb
l’unica voce è qui, di fronte niente più

                  F                  G
non sei più immobile, apri le ali e vai

               Ab                                       [Ab] 
li senti i lividi? Li senti i lividi? Li senti i brividi?!?



OUTRO:

e|--------12------15-12--13p12---------------------------------|
B|-----13------13--------------13------------------------------|
G|-/12------------------------------12h13----12-13-12h13p12-10-|  
D|-------------------------------------------------------------|
A|-------------------------------------------------------------|
E|-------------------------------------------------------------|
    C                    Ab                       (Bb)

e|--------12------15-12--13p12---------------------------------|
B|-----13------13--------------13------------------------------|
G|-/12------------------------------12h13----12-13-12h13p12-10-|
D|-------------------------------------------------------------|
A|-------------------------------------------------------------|
E|-------------------------------------------------------------|
    C                    Ab                       (Bb)

e|-----------------15-13-12------------------------------------|
B|-----12-13-15-------------13---------------------------------|
G|--14----------12-------------10..------12-13-12-15-13-12-13--|
D|-------------------------------------------------------------|
A|-------------------------------------------------------------|
E|-------------------------------------------------------------|
    A        G        C        F     [F]


e|--------12------15-12--13p12---------------------------------|
B|-----13------13--------------13------------------------------|
G|--12------------------------------12h13----12-13-12h13p12-10-|
D|-------------------------------------------------------------|
A|-------------------------------------------------------------|
E|-------------------------------------------------------------|
    C                    Ab                       (Bb)

e|--------12------15-12--13p12---------------------------------|
B|-----13------13--------------13------------------------------|
G|-/12------------------------------12h13----12-13-12h13p12-10-|
D|-------------------------------------------------------------|
A|-------------------------------------------------------------|
E|-------------------------------------------------------------|
    C                    Ab                       (Bb)

e|-----------------15-13-12-----17..---------------------------|
B|-----12-13-15-------------13/--------------------------------|
G|--14----------12---------------------------------------------|
D|-------------------------------------------------------------|
A|-------------------------------------------------------------|
E|-------------------------------------------------------------|
    A        G        C         F

e|-------------------------------------------------------------|
B|-------------------------------------------------------------|
G|--12h13p12-10-9---------------12h13p12-10-9------------------|
D|-----------------10----12-------------------10---------------|
A|--------------------8--------------------------8-------------|
E|-------------------------------------------------------------|
                C..   Ab..                 (C)(F)Ab..

e|-------------------------------------------------------------|
B|-------------------------------------------------------------|
G|--12h13p12-10-9---------------12h13p12-10-9------------------|
D|-----------------10----12-------------------10---------------|
A|--------------------8--------------------------8-------------|
E|-------------------------------------------------------------|
                C..   Ab..                 (C)(F)Ab..

e|-------------------------------------------------------------|
B|-------------------------------------------------------------|
G|--12h13p12-10-9---------------12h13p12-10-9------------------|
D|-----------------10----12-------------------10---------------|
A|--------------------8--------------------------8-------------|
E|-------------------------------------------------------------|
                C     Ab                   (C)(F)Ab  

e|-------------------------------------------------------------|
B|-------------------------------------------------------------|
G|--12h13p12-10-9-------------12h13p12-10-9--------------------|
D|-----------------10----12-----------------10---10------------|
A|--------------------8--------------------------10------------|
E|-----------------------------------------------8-------------|
                C     Ab                 (C)(Ab) C..
COMMENTA QUESTA TABLATURA
Devi avere JavaScript attivato per poter commentare! (misura antispam)