IndyTab Logo

BETA VERSION - 321 TABS DISPONIBILI

Cerca una tablatura nel nostro archivio:

Gruppo Canzone


Elenco dei gruppi presenti su IndyTab
Lista di tutte le tablature di IndyTab
DISCLAIMER
Questa tablatura rappresenta l'interpretazione della canzone da parte dell'autore. Può essere usata per scopi di studio, insegnamento e ricerca.

La tab è liberamente riproducibile in forum, blog, siti web (ad eccezione degli archivi di tablature online) e stampabile. Non è obbligatorio ma molto gradito citare la fonte (cioè IndyTab), meglio con un link di rimando al nostro sito.
ACCORDATORE
Per accordare la tua chitarra puoi usare il nostro accordatore online
TAB REQUEST
Stai cercando una tablatura? Suggeriscila compilando il modulo sottostante!

Gruppo
Titolo
Tua Mail

(la tua mail verrà usata per ricontattarti quando la tablatura sarà online)
DELLO STESSO GRUPPO

Duracel // Una Storiella

Tablatura tratta dall'album: Decido Io

(clicca qui per la legenda)

(clicca qui per il video)

    G#  C#  D#  C
e|------------------|
B|------------------|
G|------6---8---5---|
D|--6---6---8---5---|
A|--6---4---6---3---|
E|--4---------------|


--------------------------------------------------------------------------



STROFA:

[G#]               [C#]                        [D#]      [C#]       [G#]
Ti sei lavata, vestita, hai preso un sorso di vita e poi sei andata giù

     [G#]               [C#]               [D#]       [C#]        [G#]
dove lui era la ti aspettava, davanti alla strada, che non ne può più

       G#..            [C#]           [D#]      [C#]     [G#]
lui ti dice: "stasera amore, voglio passare la notte con te"

      G#..                [C#]                   [D#]       [C#]   [G#]
nella testa la mamma, i consigli ,temporeggi ,sbadigli, poi dici di si

        G#           C#                    D#           C#       G#
C'è chi sogna il paradiso fra le nuvole in cielo, tutto nell'aldilà

G#                C#                           D#
Ma, sui sedili abbassati, fra gli sguardi indiscreti,

  C#                G#
scopri che invece è qua!

        G#                 C#                     D#      C#        G#
Che non serve aspettare la morte fra le tue gonne corte redenta sei tu

     G#                    C#
E se questo mi manda all'inferno, pensi,

         [D#]
del padreterno, non me ne sbatte più!

      G#              C#                 D#       C#       G#
Tutto bello, tutto stupendo, fanculo l'orrendo prete della tv

     G#            C#                 D#      C#        G#
predicava la castità, ma la sola verità è che pure a te va!

      G#                    C#
Ma si sa: pure i muri hanno orecchie,

              D#           C#        G#
parlano come vecchie tutti gli amici tuoi

      G#                  C#                  D#          C#       G#
Se si sa, sei una che la dà, perdi pure il rispetto perdi la dignità



SOLO:
e|-------------------------------------------|
B|-------------------------------------------|
G|-----5-5-5-----6-6-6-5-------------5-------|
D|-6-8-------8-6---------6-8-8-8-6-8---------|
A|-------------------------------------------|
E|-------------------------------------------|
       G#        C#        D#   C#   G#

e|-------------------------------------------|
B|-------------------------------------------|
G|-----5-5-5-----6-6-6-5-------5-5-----------|
D|-6-8-------8-6---------6-8-8-----6---------|
A|-------------------------------------------|
E|-------------------------------------------|
       G#        C#        D#  C#  G#

e|-------------------------------------------|
B|----------9-8------------------------------|
G|-/8-8-888-----8-10-8-8\------6-5-----------|
D|------------------------6-6------8---------|
A|-------------------------------------------|
E|-------------------------------------------|
    G#      C             C#       D#

e|-------------------------------------------|
B|-------------------------------------------|
G|-----5-5-5-----6-6-6-5--------5-5-5--------|
D|-6-8-------8-6---------6--8-8-------6------|
A|-------------------------------------------|
E|-------------------------------------------|
       G#        C#         D#  C#    G#



STROFA:

     [G#]            [C#]                    [D#]
E' iniziata come una fiaba, con la sera e la strada

      [C#]      [G#]
e lui dentro di te...

     G#..              [C#]                   [D#]        [C#]     [G#]
E' finita fra sensi di colpa, pentimento a discolpa della tua libertà!

      G#                  C#                   D#     C#        G#
E pensare che invece tua madre nei suoi anni d'oro, come una poesia

      G#                     C#                   D#       C#       G#
porta ancora quegli anni nel cuore in cui sesso e amore erano ideologia!

      G#             C#                 D#        C#      G#
Tante cose sono cambiate, son state gettate, lasciate di là...

      G#              C#                   D#            C#     G#
e la gente parla di troie, di sesso o di storie come un secolo fa

         G#                C#             D#           C#         G#
Ma noi siamo della stessa pasta di chi dimostra che un cuore ce l'ha!

       G#             C#                   D#    C#           G#
Con ragazze piene di vita che ne danno un poca a chi non ce l'ha!

         G#                C#             D#           C#         G#
Ma noi siamo della stessa pasta di chi dimostra che un cuore ce l'ha!

      [G#]           [C#]                  D#..  C#..         G#..   [G#]
Con ragazze piene di vita che ne danno un poca a chi non ce l'ha!
VIDEO

Se il video non dovesse essere più disponibile scrivi a indytab@googlemail.com. Grazie!
COMMENTI
3/1/11 01:54, mar:
ottimo lavoro!!

3/1/11 14:54, Luca (staff IndyTab):
grazie!

COMMENTA QUESTA TABLATURA
Devi avere JavaScript attivato per poter commentare! (misura antispam)