IndyTab Logo

BETA VERSION - 321 TABS DISPONIBILI

Cerca una tablatura nel nostro archivio:

Gruppo Canzone


Elenco dei gruppi presenti su IndyTab
Lista di tutte le tablature di IndyTab
DISCLAIMER
Questa tablatura rappresenta l'interpretazione della canzone da parte dell'autore. Può essere usata per scopi di studio, insegnamento e ricerca.

La tab è liberamente riproducibile in forum, blog, siti web (ad eccezione degli archivi di tablature online) e stampabile. Non è obbligatorio ma molto gradito citare la fonte (cioè IndyTab), meglio con un link di rimando al nostro sito.
ACCORDATORE
Per accordare la tua chitarra puoi usare il nostro accordatore online
TAB REQUEST
Stai cercando una tablatura? Suggeriscila compilando il modulo sottostante!

Gruppo
Titolo
Tua Mail

(la tua mail verrà usata per ricontattarti quando la tablatura sarà online)
DELLO STESSO GRUPPO

Duracel // Non Tornare Più

Tablatura tratta dall'album: Decido Io

(clicca qui per la legenda)

(clicca qui per il video)

    D   F#   G   A
e|-------------------|
B|-------------------|
G|--7----------------|
D|--7---4----5---7---|
A|--5---4----5---7---|
E|------2----3---5---|


--------------------------------------------------------------------------


INTRO:
(suonare più volte le note segnate con *)
e|--------------------------10-9----10-9-----|
B|--10*--12-10*--12-10*----------10------10--|
G|-------------------------------------------|
D|-------------------------------------------|
A|-------------------------------------------|
E|-------------------------------------------|
    D       F#      G       A

e|-------------------------------------------|
B|--10*--12-10*--12-10*-----8-7-----8-7------|
G|------------------------------7-------7----|
D|-------------------------------------------|
A|-------------------------------------------|
E|-------------------------------------------|
    D       F#      G       A

e|--------------------------10-9----10-9-----|
B|--10*--12-10*--12-10*----------10------10--|
G|-------------------------------------------|
D|-------------------------------------------|
A|-------------------------------------------|
E|-------------------------------------------|
    D       F#      G       A

e|-------------------------------------------|
B|--10*--12-10*--12-10*-----8-7-----8-7------|
G|------------------------------7-------7-7~-|
D|-------------------------------------------|
A|-------------------------------------------|
E|-------------------------------------------|
    D        F#     G       A             D



STROFA:

D                    F#
  Io vorrei che mi dicessi

                G
almeno se ho sbagliato

                A
e invece non mi chiami

                      D
perchè mi hai già scordato

                   F#
io che ti ho amata troppo

                   G
e non ti ho mai tradito

                  A
mi tratti come un cane

                    G
che lecca il tuo vestito



PONTE:
e|---------------------------------------------|
B|------------------------------10-8-7---------|
G|-------------------------------------7-------|
D|---------------------------------------------|
A|---------------------------------------------|
E|---------------------------------------------|
            A           D       F#     G
   adesso giuro che sei morta

e|----------------------------------------------|
B|--------------------------------10-8-7--------|
G|---------------------------------------7------|
D|----------------------------------------------|
A|----------------------------------------------|
E|----------------------------------------------|
             A             D      F#     G
   e non ho voglia di ascoltarti

e|----------------------------------------------|
B|-------------------------------10-8-7-8-------|
G|----------------------------------------------|
D|----------------------------------------------|
A|----------------------------------------------|
E|----------------------------------------------|
              A            D     F#     G
   dei tuoi motivi me ne sbatto

e|----------------------------------------------|
B|--8-8-8-8-8-8-8-8---8-10-8-10-8-10-8-10-8-----|
G|----------------------------------------------|
D|----------------------------------------------|
A|----------------------------------------------|
E|----------------------------------------------|
                        A
   la porta è quella e adesso vai



RITORNELLO:

D                      F#
  Non ho niente più da dirti

                   G
lo grido al mio cervello

                 A
che sei soltanto stronza

                  D
sparisci dai miei sogni

               F#
riprenditi i disegni

              G
le foto, le bugie

                    A
che stronza che sei tu

              D
non tornare più!



STACCO:
(suonare più volte le note segnate con *)
e|--------------------------10-9----10-9-----|
B|--10*--12-10*--12-10*----------10------10--|
G|-------------------------------------------|
D|-------------------------------------------|
A|-------------------------------------------|
E|-------------------------------------------|
    D       F#      G       A

e|-------------------------------------------|
B|--10*--12-10*--12-10*-----8-7-----8-7------|
G|------------------------------7-------7-7\-|
D|-------------------------------------------|
A|-------------------------------------------|
E|-------------------------------------------|
    D        F#     G       A             D



STROFA:

D                   F#
  Io vorrei solo sperare

                         G
che un giorno un tizio a caso

                     A
ti rendesse il bel favore

                 D
ti facesse innamorare

                     F#
per poi toglierti di colpo

                           G
tutto quello in cui hai creduto

                  A
e restassi sola a piangere

                G
su un cuore rovinato



PONTE:
e|-----------------------------------------------|
B|--------------------------------10-8-7---------|
G|---------------------------------------7-------|
D|-----------------------------------------------|
A|-----------------------------------------------|
E|-----------------------------------------------|
         A                D       F#     G
   ma ti giuro che un bel giorno

e|-----------------------------------------------|
B|--------------------------------10-8-7---------|
G|---------------------------------------7-------|
D|-----------------------------------------------|
A|-----------------------------------------------|
E|-----------------------------------------------|
             A            D       F#     G
   quando avrai capito il mondo

e|----------------------------------------------|
B|-------------------------------10-8-7-8-------|
G|----------------------------------------------|
D|----------------------------------------------|
A|----------------------------------------------|
E|----------------------------------------------|
              A          D       F#     G
       e ingoiato giorni tristi

e|----------------------------------------------|
B|--8-8-8-8-8-8-8-8---8-10-8-10-8-10-8-10-8-----|
G|----------------------------------------------|
D|----------------------------------------------|
A|----------------------------------------------|
E|----------------------------------------------|
                        A
    i miei baci      li rivorresti



RITORNELLO:

D                     F#
  E ti guarderai alle spalle

                  G
saprai di aver buttato

               A
qualcosa di stupendo

            D
senza una ragione

               F#
migliaia di persone

                  G
ti abbasseranno i jeans

            A
usandoti da stronzi

                D
per non tornare più!



SOLO:
(suonare più volte le note segnate con *)
e|----------------------------------------------------------------------|
B|-10-12-10-12-10*----10-8-7-8-8-7-------8-7----------------------------|
G|---------------------------------7---------7-9-9-------7-9-7-9b11r9-7-|
D|----------------------------------------------------------------------|
A|----------------------------------------------------------------------|
E|----------------------------------------------------------------------|
   D           F#              G                 A                    D

e|----------------------10-9--------------------------------------------|
B|-10-12-10-12-10*---10------10-7-8-7-----8-7---------------------------|
G|------------------------------------7-------7--9-9---7-9-7-9b11r9-7\--|
D|----------------------------------------------------------------------|
A|----------------------------------------------------------------------|
E|----------------------------------------------------------------------|
                F#                G                A



ULTIMO RITORNELLO:

D                      F#
  Non ho niente più da dirti

                   G
lo grido al mio cervello

                    A
che sei soltanto stronza

                   D
sparisci dai miei sogni

               F#
riprenditi i disegni

              G
le foto, le bugie

                    A
che stronza che sei tu

              D
non tornare più!

(suonare più volte le note segnate con *)
e|--------------------------10-9----10-9-----|
B|--10*--12-10*--12-10*----------10------10--|
G|-------------------------------------------|
D|-------------------------------------------|
A|-------------------------------------------|
E|-------------------------------------------|
    D       F#      G       A
                                    Non tornare più

e|-------------------------------------------|
B|--10*--12-10*--12-10*-----8-7-----8-7------|
G|------------------------------7-------7----|
D|-------------------------------------------|
A|-------------------------------------------|
E|-------------------------------------------|
    D        F#     G       A              
                                    Non tornare più

e|--------------------------------------------------|
B|--10*--12-10*--12-10*-----8-7-----8-7-------------|
G|------------------------------7-------7-------7~--|
D|--------------------------------------------------|
A|--------------------------------------------------|
E|--------------------------------------------------|
    D        F#     G       A                   D..
                                    Non tornare più
VIDEO

Se il video non dovesse essere più disponibile scrivi a indytab@googlemail.com. Grazie!
COMMENTA QUESTA TABLATURA
Devi avere JavaScript attivato per poter commentare! (misura antispam)