IndyTab Logo

BETA VERSION - 321 TABS DISPONIBILI

Cerca una tablatura nel nostro archivio:

Gruppo Canzone


Elenco dei gruppi presenti su IndyTab
Lista di tutte le tablature di IndyTab
DISCLAIMER
Questa tablatura rappresenta l'interpretazione della canzone da parte dell'autore. Può essere usata per scopi di studio, insegnamento e ricerca.

La tab è liberamente riproducibile in forum, blog, siti web (ad eccezione degli archivi di tablature online) e stampabile. Non è obbligatorio ma molto gradito citare la fonte (cioè IndyTab), meglio con un link di rimando al nostro sito.
ACCORDATORE
Per accordare la tua chitarra puoi usare il nostro accordatore online
TAB REQUEST
Stai cercando una tablatura? Suggeriscila compilando il modulo sottostante!

Gruppo
Titolo
Tua Mail

(la tua mail verrà usata per ricontattarti quando la tablatura sarà online)
DELLO STESSO GRUPPO

Cattive Abitudini // Appartamentus

Tablatura tratta dall'album: Il Meglio Del Peggio

(clicca qui per la legenda)

(clicca qui per il video)

    D  G  A  B
e|---------------|
B|---------------|
G|--7------------|
D|--7--5--7--9---|
A|--5--5--7--9---|
E|-----3--5--7---|


--------------------------------------------------------------------------


INTRO:

D.. (pickslide)

(ripetere più volte le ottave e i power chord)
e|------------------------------------------------------|
B|------8-7-5-7-------8--10-------8-7-5-7-------8--10---|
G|--7-------------7-----------7-------------7-----------|
D|--7---5-4-2-4---7---5--7----7---5-4-2-4---7---5--7----|
A|--5-------------5-----------5-------------5-----------|
E|------------------------------------------------------|
    D             G           B             A  (note giro di basso)



STROFA:

[D] D..
        Mamma ho il ciuffo spettinato

[G] G..
        per fortuna son pelato

[D] D..
        io le chiedo di baciarmi

[G] G..
        io le dico di succhiarmi



PONTE:

B                     A
when I look up to the sky

                      G
and I see before your eyes

                        A
I’m so sure that I feel fall in love



RITORNELLO:

D          A
Ma saresti cool

     B               G
se mettessi anche le Madigan?

D           A
fallo per i kids

       B             G
sei perfetto sei una favola!

D          A
Ma saresti cool

     B               G
se mettessi anche le Madigan?

D           A
fallo per i kids

       B             G
sei perfetto sei una favola!



STROFA:

[D] D..                (pickslide)
        Tatuata una stellina

[G] G..
        la mia pelle è una latrina

[D] D..                (pickslide) 
        dell’America lo schiavo

[G] G..
        da due mesi non mi lavo



PONTE:

B                     A
and I know you are my friend

                            G
fields of flowers until the end

                      A
but I want to fuck my mother now



RITORNELLO:
(ripetere il ritornello)



SOLO:

[D] D.. (pickslide)

e|--------------------------------------------------|
B|--------------------------------------------------|
G|-11h12p11-9h11p9-7-----7-9b11r9-7-7---------------|
D|---------------------9----------------------------|
A|--------------------------------------------------|
E|--------------------------------------------------|
   D                       G

e|--------------------------------------------------|
B|--------------------------------------------------|
G|-11h12p11-9h11p9-7-----7-9--11--9-----------------|
D|---------------------9----------------------------|
A|--------------------------------------------------|
E|--------------------------------------------------|
   B                       A

e|--------------------------------------------------|
B|--------------------------------------------------|
G|-11h12p11-9h11p9-7-----7-9b11r9-7-7---------------|
D|---------------------9----------------------------|
A|--------------------------------------------------|
E|--------------------------------------------------|
   D                       G

e|------------------------------------------------------------|
B|------------------------------------------------------------|
G|--------7h9p7-11h12p11-9h11p9-------9h11p9-11h12p11-9h11p9--|
D|--7h9p7-----------------------7h9p7-------------------------|
A|------------------------------------------------------------|
E|------------------------------------------------------------|
    B                           A

D.. D.. (pickslide)



RITORNELLO:
(ripetere il ritornello)



OUTRO:
[D]
VIDEO

Se il video non dovesse essere più disponibile scrivi a indytab@googlemail.com. Grazie!
COMMENTA QUESTA TABLATURA
Devi avere JavaScript attivato per poter commentare! (misura antispam)